PrimaNota.ru - самый крупный в мире бесплатный архив песенных текстов, аккордов, табулатур и нот


Die Arzte - Geisterhaus - аккорды и текст, таба, бас-таба, видео

Регистрация Запомнить меня
Войти через:  Facebook Google Twitter Vk Yandex Mail.ru

Die Arzte - Geisterhaus - аккорды и текст, таба, бас-таба, видео

Печатать
Просмотров: 269
Уроки эстрадного вокала в Санкт-Петербурге
Geisterhaus
Die Arzte
		   Geisterhaus
===========
(M: Gonzalez/T: Gonzalez/Blitz)


Anm.: Die Gitarre ist einen Halbton tiefer gestimmt.
   e  h/b3 e7/2  e7/b3  e'  G   f#  a   C   H   D
1:-7-|-7--|--9--|--10-|-0-|-3-|-2-|-0-|---|---|---|
2:-8-|-7--|--8--|--8--|-0-|-3-|-2-|-1-|-5-|-4-|-7-|
3:-9-|-7--|--7--|--7--|-0-|-4-|-2-|-2-|-5-|-4-|-7-|
4:-9-|-9--|--9--|--9--|-2-|-5-|-4-|-2-|-5-|-4-|-7-|
5:-7-|-9--|--7--|--7--|-2-|-5-|-4-|-0-|-3-|-2-|-5-|
6:---|-10-|-----|-----|-0-|-3-|-2-|---|---|---|---|



1.Strophe (Mit Stahlakustikgitarre; die Akkorde mit * sind plus verzerrte E-Gitarre gespielt + Phaser):
       e           h/b3
Keiner sieht mich,
                e7/2            e7/b3
Bin einfach nur da, einfach nur da.
           e      h/b3
Hab nix zu sagen,
          e7/2             e7/b3
Hab viele Fragen, so viele Fragen.

            e        h/b3
Krieg keine Antwort,
             e7/2               e7/b3
Keiner denkt nach, keiner denkt nach.
          e*    h/b3*
Viel zu extrem,
e7/2          e7/b3
Fragen zu unbequem.


Refrain (Mit verzerrter E-Gitarre):
e'        G      f#    a                  C     H     e'
  Und Ihr werdet meine Stimme noch mal in Euren Ohren hören.
       G        f#      a                      C       H         C
Sollte ich mich beim Versuch, mich vor euch zu wehren, selber zerstören.
    D                    a           H              C
Ich schreie es einfach heraus. Meine Welt ist gnadenlos.
               D                 e(-->Solo I)
Ich komm nicht raus - ein Geisterhaus.


Solo I (Mit verzerrter E-Gitarre):
                        e                        h/b3                       e7/2
1:---------------------------|-15-12-----------|--------------------------|------------------------|
2:-12-12-12-12-12-12-12-12---|--------15b17r15-|-12-----------------------|------------------------|
3:-12-12-12-12-12-12-12-12---|-----------------|-----14b16r14--12~~-------|------------------------|
4:-14-14-14-14-14-14-14-14---|-----------------|---------------------14~~-|-12~~-------------------|
5:---------------------------|-----------------|--------------------------|-------14~~--12~~-------|
6:---------------------------|-----------------|--------------------------|-------------------15~~-|
      e7/b3                  e
1:--------------------------|----------10-----10---------------|
2:----------------------8---|10b12.12.....12.....12r..10-8---8-|
3:------------------------9-|------------------------------9---|
4:----------9-12-9~~~~------|----------------------------------|
5:----10-12-----------------|----------------------------------|
6:-10-----------------------|----------------------------------|
   h/b3                              e7/2                              e7/b3
1:-----------10-----10--------------|-----------------------------10-|-12--15--17--17b19--b19~~-|
2:-10b12.12.....12.....12r..10-8----|-8--10b12r10-8----8--10--12-----|--------------------------|
3:-------------------------------9--|---------------9----------------|--------------------------|
4:----------------------------------|--------------------------------|--------------------------|
5:----------------------------------|--------------------------------|--------------------------|
6:----------------------------------|--------------------------------|--------------------------|


2.Strophe (Mit Stahlakustikgitarre; im zweiten Teil plus verzerrte E-Gitarre leise):
               e   h/b3
Macht euch nur zu,
    e7/2                 e7/b3                 e       h/b3
Kopuliert, stagniert und sauft euch voll, konsumiert!
               e7/2               e7/b3
Los, kauft die Sachen, die keiner braucht.

          e      h/b3
Fühl Dich schön,
         e7/2           e7/b3
Nach der zehnten Liposuction.
           e    h/b3
Redet euch ein,
e7/2          e7/b3
Alles muss so sinnlos sein.


Refrain (Mit verzerrter E-Gitarre):
e'        G      f#    a                  C     H     e'
  Und Ihr werdet meine Stimme noch mal in Euren Ohren hören.
       G        f#      a                      C       H         C
Sollte ich mich beim Versuch, mich vor euch zu wehren, selber zerstören.
    D                    a           H              C
Ich schreie es einfach heraus. Meine Welt ist gnadenlos.
               D                 e'(-->Solo II)
Ich komm nicht raus - ein Geisterhaus.


Solo II (Mit verzerrter E-Gitarre):
   e'      G         f#          a            C         H           e'
1:----------------------------------|----------------------------------|
2:-------------8/10-----------------|-------------8/10-----------------|
3:-/9--11--12--------12--11-9-12-9~-|-/9--11--12--------12--11-9-12-9~-|
4:----------------------------------|----------------------------------|
5:----------------------------------|----------------------------------|
6:----------------------------------|----------------------------------|
   e'      G       f#                   a                          C                 H
1:------------------------10---------|--------------------10-------10b12--10--7------7-|
2:-------------10--10b12------10^8---|-------------10-b12----r.-.----------------10----|
3:-/9--11--12----------------------9-|--12--9--12--------------------------------------|
4:-----------------------------------|-------------------------------------------------|
5:-----------------------------------|-------------------------------------------------|
6:-----------------------------------|-------------------------------------------------|
          C                       D                       e'
1:-12-----12---------12---------|-14---------14---------|-15---------15---------|
2:----15--15b17-(3x)-15b17-(3x)-|-17b19-(3x)-17b19-(3x)-|-18b20-(3x)-18b20-(3x)-|
3:------------------------------|-----------------------|-----------------------|
4:------------------------------|-----------------------|-----------------------|
5:------------------------------|-----------------------|-----------------------|
6:------------------------------|-----------------------|-----------------------|
   f#                      C       D                              e'(-->Refrain)
1:-17---------17---------|-19----------19-22^19----19-22^19----19-22b24~-|
2:-20b22-(3x)-20b22-(3x)-|-22b24-(8x)-----------22----------22-----------|
3:-----------------------|-----------------------------------------------|
4:-----------------------|-----------------------------------------------|
5:-----------------------|-----------------------------------------------|
6:-----------------------|-----------------------------------------------|


Refrain (Mit verzerrter E-Gitarre):
e'        G      f#    a                  C     H     e'
  Und Ihr werdet meine Stimme noch mal in Euren Ohren hören.
       G        f#      a                      C       H         C
Sollte ich mich beim Versuch, mich vor euch zu wehren, selber zerstören.
    D                    a           H              C(-->Solo III)
Ich schreie es einfach heraus. Meine Welt ist gnadenlos.
               D                 e'    G  f#
Ich komm nicht raus - ein Geisterhaus.
a             C                 H     e'   G  f#
  Und was ich tu! Ich lass euch keine Ruh!
a             C                 H     e'   G  f#
  Und was ich tu! Ich lass euch keine Ruh!
a             C                 H     e'   G  f#
  Und was ich tu! Ich lass euch keine Ruh!
a(Ende)
  Und was ich tu! Ich lass euch keine Ruh!


Solo III (Mit verzerrter E-Gitarre):
   C           D                                            e'                     G     f#           a
1:-------------10^7----7--10^7----7--10^7----7--10^7----7-|-10----10----10-----10-----10------------------|
2:-fdk...--10-------10---------10---------10---------10---|-10b12-10b12-10b12--10b.12....12r.10-8---8-----|
3:--------------------------------------------------------|---------------------------------------9---9~~-|
4:--------------------------------------------------------|-----------------------------------------------|
5:--------------------------------------------------------|-----------------------------------------------|
6:--------------------------------------------------------|-----------------------------------------------|
   C              H    e'                                  G                   f#
1:-------------------|--------12--10---------------------|---------10------10-------------------|
2:---------8-10-8----|-10b12----------10b12r10-----------|-10b12.......12......12r10^8---8^10^8-|
3:-9---7-9--------9~-|--------------------------12-9--12-|-----------------------------9--------|
4:---9---------------|-----------------------------------|--------------------------------------|
5:-------------------|-----------------------------------|--------------------------------------|
6:-------------------|-----------------------------------|--------------------------------------|
   a                                              C                   H
1:--------10---------10-------------------------|-10^7^10^7--12^15^12-15--12--14-|
2:-10b12------10b12......12r10-8----8----8-10-8-|--------------------------------|
3:--------------------------------9---9---------|--------------------------------|
4:----------------------------------------------|--------------------------------|
5:----------------------------------------------|--------------------------------|
6:----------------------------------------------|--------------------------------|
   e'                                 G                         f#
1:-14b16r14^12----12----------------|--------------------------|----------------------------|
2:-------------15----15..b17.r15-12-|--------------------------|12-15-12--------------------|
3:----------------------------------|-16^15^12-16^15^12--14-15-|---------15-12--15-14-12----|
4:----------------------------------|--------------------------|-------------------------14-|
5:----------------------------------|--------------------------|----------------------------|
6:----------------------------------|--------------------------|----------------------------|
   a                     C                       H                       e'
1:-----19--17b19--17b19-|17b19----17b19--17b19-|-17b19r17^15----15----------|
2:----------------------|------17--------------|-------------17----17^15^17-|
3:-12~~-----------------|----------------------|----------------------------|
4:----------------------|----------------------|----------------------------|
5:----------------------|----------------------|----------------------------|
6:----------------------|----------------------|----------------------------|
                                                                   G
1:-15--17--17b19r17^15----15-----17^15-----15-|17b19r17^15----15-|-19^17^15----15-|
2:---------------------17----17--------17-----|------------17----|----------17----|
3:--------------------------------------------|------------------|----------------|
4:--------------------------------------------|------------------|----------------|
5:--------------------------------------------|------------------|----------------|
6:--------------------------------------------|------------------|----------------|
                       f#                                  a
1:-17b19r17^15----15-|-19^17^15----15-|-17b19r17^15----15-|17---|
2:-------------17----|----------17----|-------------17----|-----|
3:-------------------|----------------|-------------------|-----|
4:-------------------|----------------|-------------------|-----|
5:-------------------|----------------|-------------------|-----|
6:-------------------|----------------|-------------------|-----|


	********************************************************
	      *Diese Tab stammt von www.Debil-Tabs.de.vu*
	********************************************************     
Добавлено: 25.08.2013
Другие материалы по этой песне:

Страница создана 17.04.2012
http://primanota.ru/die-arzte/geisterhaus-chords.htm
Привет, Гость.
Предлагаем пройти революционный курс по гитаре.
Подарок от PrimaNota.Ru, забирай!