PrimaNota.ru - самый крупный в мире бесплатный архив песенных текстов, аккордов, табулатур и нот


Die Arzte - 25 Stunden Am Tag - текст песни, таба, видео

Регистрация Запомнить меня
Войти через:  Facebook Google Twitter Vk Yandex Mail.ru

Die Arzte - 25 Stunden Am Tag - текст песни, таба, видео

Печатать
Просмотров: 119
Авторы музыки: Martin Witte
Авторы текста: Martin Witte
25 Stunden am Tag
=================
(M/T: Witte) 


Anm.:Akkorde
   G   C   F   F#  D   h   a   a*  F*  D*  G*  e*  h*  e   D4
1:---|---|---|---|---|---|---|-0-|-1-|-2-|-3-|-0-|-2-|---|-3-|
2:---|---|---|---|---|---|---|-1-|-1-|-3-|-3-|-0-|-3-|---|-3-|
3:---|-5-|---|---|-7-|-4-|-2-|-2-|-2-|-2-|-4-|-0-|-4-|-9-|-2-|
4:-5-|-5-|-3-|-4-|-7-|-4-|-2-|-2-|-3-|-0-|-5-|-2-|-4-|-9-|-0-|
5:-5-|-3-|-3-|-4-|-5-|-2-|-0-|-0-|-3-|---|-5-|-2-|-2-|-7-|---|
6:-3-|---|-1-|-2-|---|---|---|---|-1-|---|-3-|-0-|---|---|---|


Intro:
|  3x          |RiffA      |RiffB  3x                       |                                   |
|  G        C  | G         |F  F#      G                    |F  F#      G                    C  |
|    p.m..     |    .....  |              .......   ...     |              .......              |
1:-------------|-----------|--------------------------------|-----------------------------------|
2:-------------|-----------|--------------------------------|-----------------------------------|
3:----------5--|-----------|--------------------------------|--------------------------------5--|
4:-5--5-5-5-5--|-5--5-5-5--|3--4--4/5--5--5-5-5-5-5-5-5-5---|3--4--4/5--5--5-5-5-5--5-5-5-5--5--|
5:-5--5-5-5-3--|-5--5-5-5--|3--4--4/5--5--5-5-5-5-5-5-5-5---|3--4--4/5--5--5-5-5-5--5-5-5-5--3--|
6:-3--3-3-3----|-3--3-3-3--|1--2--2/3--3--3-3-3-3-3-3-3-3---|1--2--2/3--3--3-3-3-3--3-3-3-3-----|


1.Strophe:
G             D                G    C G  D
24 Stunden am Tag denk' ich an Dich.
     G                     D                G     C G  D
Weiß gar nicht was los ist, alles langweilt mich.
C
  Ich hab Dich auf der Party gesehen.
    h      a*
Ein kurzer Blick von Dir und es war um mich geschehn.
a   h   G                      D                        G*   C
Oh, oh, oh - Musik kam aus dem Fernsehen, alles was ich mag.
     G*             D*          (-->Interlude)
Ohne Dich Langeweile den ganzen Tag.


Interlude:
|3x              |               |
|  G          C  | G          C  |
|       p.m..    |               |
1:---------------|---------------|
2:---------------|---------------|
3:------------5--|------------5--|
4:-5-5--5-5-5-5--|-5-5-5-5-5--5--|
5:-5-5--5-5-5-3--|-5-5-5-5-5--3--|
6:-3-3--3-3-3----|-3-3-3-3-3-----|


2.Strophe:
     G               D                  G    C G  D
Seit Tagen sitz' ich jetzt schon am Telefon.
          G               D                    G     C G  D
Trau mich nicht Dich zu erreichen, das ist der Hohn.
           C
Doch irgendwann werd' ich Dir meine Liebe gestehn.
    h          a*
Ich werd' dich fragen: "Willst du mit mir gehen ?".
         G  F*                                     D*
Und wenn Du ja sagst, lass ich Dich niemals mehr allein. (Oh-Ho)


Refrain:
    G*                e*           h*    C-C-C-C-h-a
Ich pflanz' Dir einen Baum auf dem Mond.
G*                  e*                       h*             D*     D4-D*
   Ich baue uns ein kleines Schloss unten im Meer wo keiner wohnt.
              G*               e*             h*     C-C-C-C-h-a
Ich klau' ein Flugzeug und wir fliegen um die Welt.
G*                     e*                h*                 D*     D4-D*
   Ich schenk' Dir die Ewigkeit und dann lieben wir uns für immer.
G*  e           h*                 D*     D4-D*
       Und dann lieben wir uns für immer,
G  F F# G           F F# G           F F# G
          für immer,       für immer,        für immer


Solo (Isch denke, die Akkorde sind nur für Bass):
    D                            C        a           h          a          D
1:-----------------------|--------------------------|--------------|-------------------10--|
2:-----------------------|--------------------------|--------------|---------------10------|
3:-77--7----7--5--4--4/5-|-4--------5----------5----|-4--4/5--4----|-4--5--5/7-7-----------|
4:-----------------------|----7--5-----5--5/7-----7-|------------7-|-----------------------|
5:-----------------------|--------------------------|--------------|-----------------------|
6:-----------------------|--------------------------|--------------|-----------------------|

                                                     C           h
1:----------------------------------------------|---------------------------|
2:----------------t----t----t----t----t---------|---------------------------|
3:--5--4--5^4^5^4^12^5^11^4^12^5^11^4^12-12/17--|----555--4------555--4-----|
4:----------------------------------------------|-7----------7-----------7--|
5:----------------------------------------------|---------------------------|
6:----t = Tapping-------------------------------|---------------------------|

    a                       G
1:------------------------|--------------------10----10----10----10----10----10----10---------|
2:--555--3------555--3----|-------8--8-8-10-8--11b12-11b12-11b12-11b12-11b12-11b12-11b12-12/--|
3:--555--4--5---555--4--5-|------7------------------------------------------------------------|
4:----------7-----------7-|-----9-------------------------------------------------------------|
5:------------------------|-10----------------------------------------------------------------|
6:------------------------|-------------------------------------------------------------------|


Refrain:
    G*                e*           h*    C-C-C-C-h-a
Ich pflanz' Dir einen Baum auf dem Mond.
G*                  e*                       h*             D*    D4-D*
   Ich baue uns ein kleines Schloss unten im Meer wo keiner wohnt.
              G*               e*             h*     C-C-C-C-h-a
Ich klau' ein Flugzeug und wir fliegen um die Welt.
G*              e*                                 h*                D*     D4-D*
   Alles was Du willst, und noch viel mehr, besorg ich Dir auch ohne Geld.        (Oh-Ho)

    G*                e*           h*    C-C-C-C-h-a
Ich pflanz' Dir einen Baum auf dem Mond.
G*                  e*                       h*             D*    D4-D*
   Ich baue uns ein kleines Schloss unten im Meer wo keiner wohnt.
              G*               e*             h*     C-C-C-C-h-a
Ich klau' ein Flugzeug und wir fliegen um die Welt.
G*                     e*                h*            D*     D4-D*
   Ich schenk' Dir die Ewigkeit und dann leben wir für immer.
G*  e         h*               D*    D4-D*
      Und wir schlagen uns für immer
G*  e          h*               D*            (-->Interlude)
      Und dann lieben wir uns - 25 Stunden am Tag.


Interlude:
|3x              |               |
|  G          C  | G          C  |
|       p.m..    |               |
1:---------------|---------------|
2:---------------|---------------|
3:------------5--|------------5--|
4:-5-5--5-5-5-5--|-5-5-5-5-5--5--|
5:-5-5--5-5-5-3--|-5-5-5-5-5--3--|
6:-3-3--3-3-3----|-3-3-3-3-3-----|

Добавлено: 26.07.2013
Другие материалы по этой песне:
  • Аккорды и текст

Страница создана 26.07.2013
http://primanota.ru/die-arzte/25-stunden-am-tag-chords.htm
Привет, Гость.
Предлагаем пройти революционный курс по гитаре.
Подарок от PrimaNota.Ru, забирай!