PrimaNota.ru - самый крупный в мире бесплатный архив песенных текстов, аккордов, табулатур и нот


Die Apokalyptischen Reiter - Ghostriders In The Sky - текст песни, таба, видео

Регистрация Запомнить меня
Войти через:  Facebook Google Twitter Vk Yandex Mail.ru

Die Apokalyptischen Reiter - Ghostriders In The Sky - текст песни, таба, видео

Печатать
Просмотров: 429
Band: Die Apokalyptischen Reiter
Album: Friede sei mit Dir (EP)
Song: Ghostriders in the Sky

Tabber: sTyleFree (29/04/07) - inquiries, questions, comments: zerimskijmsncom

Tuning: C F A# D# G C (2 steps down)

I've tabbed out two "versions", one only consisting of the chords for more experienced 
players who get the rythm without further guidance and one full version for beginners.

Intro/Main:
C |---------------------------------------|----------------------------------------|
G |---------------------------------------|----------------------------------------|
D#|---------------------------------------|----------------------7-9-9-9p7----9~---|
A#|---7-7-7--9-10-10-10--7----------------|---7-7-7--9-10-10-10------------10------|
F |-7----------------------10-10-10-7-10~-|-7--------------------------------------|
C |---------------------------------------|----------------------------------------|

C |-------------------------------------|------------------------------------------|lead guit.||rythm guit--|
G |-------------------------------------|------------------------------------------|--------*-||-------*----|
D#|-9-9/14-14-14\9-9-9-9-9p7------------|------------------------------------------|-9-9-9-12~||-------5~---|
A#|--------------------------10-7~------|-7---------10~---------10-10-7-7-5-7~-----|----------||-------5~---|
F |-------------------------------------|---8-8-8-8--------------------------------|----------||-------3~---|
C |-------------------------------------|------------------------------------------|----------||------------|
                                                        \------intro only-----------------------------------|

Intro cont.
C |---------|---------|---------|---------|-----------------|-------------------|
G |---------|---------|---------|---------|-----------------|-------------------|
D#|-5~----5-|---------|---------|-7~----7-|-----------------|-------------------|
A#|-5~----5-|-7~----7-|-3~----3-|-7~----7-|-7-7-7-7-7-7-7-7-|-7-7-7-7-7-7-7-7---|
F |-3~----3-|-7~----7-|-3~----3-|-5~----5-|-7-7-7-7-7-7-7-7-|-7-7-7-7-7-7-7-7---|
C |---------|-5~----5-|-1~----1-|---------|-5-5-5-5-5-5-5-5-|-5-5-5-5-5-5-5-5---|
                                           PM-----------------------------------|


Verse:
C |-----------------------------|-----------------------------|
G |-----------------------------|-----------------------------|
D#|-----------------------------|-----------------------------|
A#|-----------------------------|-5------5------5------5------|
F |-7------7------7------7------|-3--3-3-3--3-3-3--3-3-3--3-3-|
C |-5--5-5-5--5-5-5--5-5-5--5-5-|-----------------------------|
       ---    ---    ---    ---      ---    ---    ---    ---

C |-----------------------------|-----------------------------|
G |-----------------------------|-----------------------------|
D#|-----------------------------|-----------------------------|
A#|-----------------------------|-5------5------9------9------|
F |-7------7------7------7------|-3--3-3-3--3-3-7--7-7-7--7-7-|
C |-5--5-5-5--5-5-5--5-5-5--5-5-|-----------------------------|
       ---    ---    ---    ---      ---    ---    ---    ---

C |-----------------------------|-----------------------------|
G |-----------------------------|-----------------------------|
D#|-----------------------------|-----------------------------|
A#|-----------------------------|-----------------------------|
F |-7------7------7------7------|-7------7------7------7------|
C |-5--5-5-5--5-5-5--5-5-5--5-5-|-5--5-5-5--5-5-5--5-5-5--5-5-|
       ---    ---    ---    ---      ---    ---    ---    ---

C |-----------------------------|-----------------------------|
G |-----------------------------|-----------------------------|
D#|-----------------------------|-----------------------------|
A#|-----------------------------|-7------7--------------------|
F |-3------3------3------3------|-5--5-5-5--5-5-7------7------|
C |-1--1-1-1--1-1-1--1-1-1--1-1-|---------------5--5-5-5--5-5-|
       ---    ---    ---    ---      ---    ---    ---    ---


Refrain rythm:
C |----This bar is left out-----|-----------------------------|
G |----in the second refrain----|-----------------------------|
D#|-----------------------------|-----------------------------|
A#|-----------------------------|-5------5------5------5------|
F |-7------7------7------7------|-3--3-3-3--3-3-3--3-3-3--3-3-|
C |-5--5-5-5--5-5-5--5-5-5--5-5-|-----------------------------|
       ---    ---    ---    ---      ---    ---    ---    ---

C |-----------------------------|-----------------------------|
G |-----------------------------|-----------------------------|
D#|-----------------------------|-----------------------------|
A#|-----------------------------|-----------------------------|
F |-7------7------7------7------|-3------3------3------3------|
C |-5--5-5-5--5-5-5--5-5-5--5-5-|-1--1-1-1--1-1-1--1-1-1--1-1-|
       ---    ---    ---    ---      ---    ---    ---    ---

C |-----------------------------|-----------------------------|
G |-----------------------------|-----------------------------|
D#|-----------------------------|-----------------------------|
A#|-7------7------7------7------|-----------------------------|
F |-5--5-5-5--5-5-5--5-5-5--5-5-|-7------7------7------7------|
C |-----------------------------|-5--5-5-5--5-5-5--5-5-5--5-5-|
       ---    ---    ---    ---      ---    ---    ---    ---


Song order:
Intro/Main
Intro cont.
Verse
Refrain
Verse
Refrain
Verse
Intro/Main
Refrain
Verse

-------------------- CHORDS -----------------------
The only thing you'll need apart from the chords is the mainriff, just take the one 
above (Intro). Basically you could simply play the verse instead, it's your choice.


Chords are *NOT* transcribed!
(Meaning an A5 p.e. is still a powerchord based on the 5th fret of your lowest string)

E5* = "high" E5, 7th fret on your F string

Intro
Refrain (open chords)

   A5                             C5
1. An old cowpoke went riding out one hot and windy day,
   A5                           C5                 E5*
   Upon a ridge he rested as he went along his way,
   A5
   When all at once a mighty herd of red-eyed cows he saw,
   F5                                D5           A5
   Aplowin through the ragged skies, and up the cloudy draw.

REFRAIN:
   C5          A5          F5          D5          A5
   Yip-i-ya-a, Yip-i-ya-o, Ghost riders in the sky.


2. Their brands were still on fire and their hoofs were made of steel.
   Their horns were black and shiny and their hot breath he could feel.
   A bolt of fear went through him as they thundered through the sky.
   For as he saw the riders comin hard, he could hear their mournful cry.

Refrain

3. Their face were gaunt, their eyes were blurred,
   Their shirts all soaked with sweat,
   They're riding hard to catch that herd, but they ain't caught him yet.
   They've got to ride forevermore on the range up in the sky,
   On horses snorting fire and as they ride, I hear them cry.

Intro/Main (Guitar 2 Verse)
Refrain

4. And as the riders loped on by he heard one call his name,
   If you want to save your soul from hell a ridin on the range,
   Then cowboy better change your ways or with us you will ride,
   Trying to catch the devil's herd across the endless skies.

End (and last bars) A5
Добавлено: 31.05.2012
Другие материалы по этой песне:
  • Аккорды и текст

Страница создана 31.05.2012
http://primanota.ru/die-apokalyptischen-reiter/ghostriders-in-the-sky-chords.htm
Привет, Гость.
Предлагаем пройти революционный курс по гитаре.
Подарок от PrimaNota.Ru, забирай!