PrimaNota.ru - самый крупный в мире бесплатный архив песенных текстов, аккордов, табулатур и нот


Die Apokalyptischen Reiter - Geopfert - текст песни, таба, видео

Регистрация Запомнить меня
Войти через:  Facebook Google Twitter Vk Yandex Mail.ru

Die Apokalyptischen Reiter - Geopfert - текст песни, таба, видео

Печатать
Просмотров: 146
------------------------------
- DIE APOKALYPTISCHEN REITER -
-         "Geopfert"         -
-    All You Need Is Love    -
------------------------------

Tuning: 2 steps down
[ C G D# A# F C ]


* INTRO:

                   /----------- 3 times ------------\
||----------------|----------------------------------|
||----------------|----------------------------------|
||--5\-4\-0-------|*--------------------------------*|
||--3\-2\-0-5--4--|*--------------------------------*|
||----------3--2--|----------------------------------|
||----------------|--0-0-0-0-0-0-0-0-0-0-0-0-0-0-0-0-|
                     PM.............................]

                  /----------- 3 times ------------\   
|----------------|----------------------------------| |----------------|
|----------------|----------------------------------| |----------------|
|--5\-4\-0-------|*--------------------------------*| |--5\-4\-0-------|
|--3\-2\-0-5--4--|*--------------------------------*| |--3\-2\-0-5--4--|
|----------3--2--|--0-0-0-0-0-0-0-0-0-0-0-0-0-0-0-0-| |----------3--2--|
|----------------|----------------------------------| |----------------|
                    PM.............................]


* VERSE 1:

 /----------- 3 times ------------\
|----------------------------------|----------------|
|----------------------------------|----------------|
|*--------------------------------*|--5\-4\-0-------|
|*--------------------------------*|--3\-2\-0-5--4--|
|----------------------------------|----------3--2--|
|--0-0-0-0-0-0-0-0-0-0-0-0-0-0-0-0-|----------------|
   PM.............................]

 /----------- 3 times ------------\   
|----------------------------------| |---------------|
|----------------------------------| |---------------|
|*--------------------------------*| |--5\-4\-0------|
|*--------------------------------*| |--3\-2\-0-5--4-|
|--0-0-0-0-0-0-0-0-0-0-0-0-0-0-0-0-| |----------3--2-|
|----------------------------------| |---------------|
  PM.............................]


* VERSE 2
|-------------------------|-------------------------|
|-------------------------|-------------------------|
|*------------------------|-------------------------|
|*------------------------|-------------------------|
|------------------2------|------------------2------|
|--0-0-0-0-0-0-0-0-0------|--0-0-0-0-0-0-0-0-0------|
   PM.............]          PM.............]
|-----------------------------|---------------------------------|
|-----------------------------|---------------------------------|
|-----------------------------|---------------------------------|
|-----------------------------|---------6-6-6-6-7-7-7-7-6-6-6-6-|
|------------------6--6-6-6-6-|-7-7-7-7-------------------------|
|--4-4-4-4-4-4-4-4-4----------|---------------------------------|
   PM.............]

|---------------------|---------------------|
|---------------------|---------------------|
|---------------------|---------------------|
|---------------------|---------------------|
|------------------2--|------------------2--|
|--0-0-0-0-0-0-0-0-0--|--0-0-0-0-0-0-0-0-0--|
   PM.............]      PM.............]

|-----------------------------|----------------------------------|
|-----------------------------|----------------------------------|
|-----------------------------|---------------------------------*| (2 times)
|-----------------------------|---------6-6-6-6-7-7-7-7-6-6-6-6-*|
|------------------6--6-6-6-6-|-7-7-7-7--------------------------|
|--4-4-4-4-4-4-4-4-4----------|----------------------------------|
   PM.............]


* BREAK PART:

 /------- 2 times --------\
|-----|------|------|------|
|-----|------|------|------|
|*----|------|------|-----*|
|*----|------|------|-----*|
|--2--|------|------|------|
|--0--|------|------|------|


* VERSE 3:

 /--------------- 2 times -----------------\
|---------------------------|---------------|  \
|---------------------------|---------------|  |
|*-9----------9----------9--|--10-12--10-9-*|  |
|*-7--7-7-7-7-7--7-7-7-7-7--|--8--10--8--7-*|  |
|---------------------------|---------------|  |
|---------------------------|---------------|  |
   PM.....................................]    |
                                               |
|---------------------------|---------------|  |
|---------------------------|---------------|  |
|--10---------10---------10-|--12--10-9--10-|  | 2 times
|--8--8-8-8-8-8--8-8-8-8-8--|--10--8--7--8--|  |
|---------------------------|---------------|  |
|---------------------------|---------------|  |
   PM......................................]   |
                                               |
|---------------------------|--------------|   |
|---------------------------|--------------|   |
|--7----------7----------7--|--10-9--10-9--|   |
|--5--5-5-5-5-5--5-5-5-5-5--|--8--7--8--7--|   |
|---------------------------|--------------|   |
|---------------------------|--------------|   /
   PM....................................]


* LEAD GTR. PART:

|-----------------|---------|--------------|---------|
|-----------------|---------|--------------|---------|
|*----------------|---------|--------------|---------|
|*-------------9--|--6~-----|--------------|---------|
|--7----7--10-----|---------|--8---7---8---|---------|
|-----------------|---------|--------------|--8~-----|

|-----------------|--------------|---------|
|-----------------|--------------|---------|
|-----------------|--------------|---------|
|--------------9--|--6-----------|---------|
|--7----7--10-----|------8---7---|--8------|
|-----------------|--------------|---------|

|-----------------|---------|--------------------|--------------|
|-----------------|---------|--------------------|--------------|
|--------------9--|--6------|-----6--8--9--8--6--|------6---8---|
|--7----7--10-----|---------|--8-----------------|--8-----------|
|-----------------|---------|--------------------|--------------|
|-----------------|---------|--------------------|--------------|

|-----------------|---------|---------|
|-----------------|---------|---------|
|--------------9--|--6------|--------*| (2 times)
|--7----7--10-----|---------|--8-----*|
|-----------------|---------|---------|
|-----------------|---------|---------|


* VERSE 4
|-------------------------|-------------------------|
|-------------------------|-------------------------|
|-------------------------|-------------------------|
|-------------------------|-------------------------|
|------------------2------|------------------2------|
|--0-0-0-0-0-0-0-0-0------|--0-0-0-0-0-0-0-0-0------|
   PM.............]          PM.............]
|-----------------------------|---------------------------------|
|-----------------------------|---------------------------------|
|-----------------------------|---------------------------------|
|-----------------------------|---------6-6-6-6-7-7-7-7-6-6-6-6-|
|------------------6--6-6-6-6-|-7-7-7-7-------------------------|
|--4-4-4-4-4-4-4-4-4----------|---------------------------------|
   PM.............]

|---------------------|---------------------|
|---------------------|---------------------|
|---------------------|---------------------|
|---------------------|---------------------|
|------------------2--|------------------2--|
|--0-0-0-0-0-0-0-0-0--|--0-0-0-0-0-0-0-0-0--|
   PM.............]      PM.............]

|-----------------------------|---------------------------------|
|-----------------------------|---------------------------------|
|-----------------------------|---------------------------------|
|-----------------------------|---------6-6-6-6-7-7-7-7-6-6-6-6-|
|------------------6--6-6-6-6-|-7-7-7-7-------------------------|
|--4-4-4-4-4-4-4-4-4----------|---------------------------------|
   PM.............]


* BREAK PART:

 /------- 2 times --------\
|-----|------|------|------|
|-----|------|------|------|
|*----|------|------|-----*|
|*----|------|------|-----*|
|--2--|------|------|------|
|--0--|------|------|------|


* VERSE 5:

 /--------------- 2 times -----------------\
|---------------------------|---------------|  \
|---------------------------|---------------|  |
|*-9----------9----------9--|--10-12--10-9-*|  |
|*-7--7-7-7-7-7--7-7-7-7-7--|--8--10--8--7-*|  |
|---------------------------|---------------|  |
|---------------------------|---------------|  |
   PM.....................................]    |
                                               |
|---------------------------|---------------|  |
|---------------------------|---------------|  |
|--10---------10---------10-|--12--10-9--10-|  | 2 times
|--8--8-8-8-8-8--8-8-8-8-8--|--10--8--7--8--|  |
|---------------------------|---------------|  |
|---------------------------|---------------|  |
   PM......................................]   |
                                               |
|---------------------------|--------------|   |
|---------------------------|--------------|   |
|--7----------7----------7--|--10-9--10-9--|   |
|--5--5-5-5-5-5--5-5-5-5-5--|--8--7--8--7--|   |
|---------------------------|--------------|   |
|---------------------------|--------------|   /
   PM....................................]


* LEAD GTR. PART:

|-----------------|---------|--------------|---------|
|-----------------|---------|--------------|---------|
|-----------------|---------|--------------|---------|
|--------------9--|--6~-----|--------------|---------|
|--7----7--10-----|---------|--8---7---8---|---------|
|-----------------|---------|--------------|--8~-----|

|-----------------|--------------|---------|
|-----------------|--------------|---------|
|-----------------|--------------|---------|
|--------------9--|--6-----------|---------|
|--7----7--10-----|------8---7---|--8------|
|-----------------|--------------|---------|

|-----------------|---------|--------------------|--------------|
|-----------------|---------|--------------------|--------------|
|--------------9--|--6------|-----6--8--9--8--6--|------6---8---|
|--7----7--10-----|---------|--8-----------------|--8-----------|
|-----------------|---------|--------------------|--------------|
|-----------------|---------|--------------------|--------------|

|-----------------|---------|---------|
|-----------------|---------|---------|
|--------------9--|--6------|---------|
|--7----7--10-----|---------|--8------|
|-----------------|---------|---------|
|-----------------|---------|---------|


* LAST VERSE:

 /----------- 3 times ------------\                 
|----------------------------------|----------------|    \
|----------------------------------|----------------|    |
|*--------------------------------*|--5\-4\-0-------|    |
|*--------------------------------*|--3\-2\-0-5--4--|    |
|----------------------------------|----------3--2--|    |
|--0-0-0-0-0-0-0-0-0-0-0-0-0-0-0-0-|----------------|    |
   PM.............................]                      |
                                                         | 2 times
 /----------- 3 times ------------\                      |
|----------------------------------| |---------------||  |
|----------------------------------| |---------------||  |
|*--------------------------------*| |--5\-4\-0------||  |
|*--------------------------------*| |--3\-2\-0-5--4-||  |
|--0-0-0-0-0-0-0-0-0-0-0-0-0-0-0-0-| |----------3--2-||  |
|----------------------------------| |---------------||  /
   PM.............................]
Добавлено: 02.04.2012
Другие материалы по этой песне:
  • Аккорды и текст

Страница создана 02.04.2012
http://primanota.ru/die-apokalyptischen-reiter/geopfert-chords.htm
Привет, Гость.
Предлагаем пройти революционный курс по гитаре.
Подарок от PrimaNota.Ru, забирай!