PrimaNota.ru - самый крупный в мире бесплатный архив песенных текстов, аккордов, табулатур и нот


Дидюля - Айседора - аккорды и текст, видео

Регистрация Запомнить меня
Войти через:  Facebook Google Twitter Vk Yandex Mail.ru

Дидюля - Айседора - аккорды и текст, видео

Печатать
Просмотров: 1070
Айседора
Дидюля
Интро из клипа: После 3 такта обыгрываем --
постукивая по деке гитары то большим пальцем(над 6 струной),
то остальными 4 под 1 струной.
 
            Gm                                    F
е|-----------3------------------------|-----------1----------------------|
B|---------3---3------------3-4-5-4-3-|---------1---1----------1-3-4-3-1-|
G|-------3-------3--------------------|-------2-------2------------------|
D|-----5-----------5------------------|-----3-----------3----------------|
а|---5---------------5----------------|---3---------------3--------------|
е|-3-------------------3-3------------|-1-------------------1------------|

                                            2 раза
е|-----------------------------|  |------------------------|
B|----4------4-----------------|  |---3--4----3--1---3-4-3-|
G|--3---3--3-------------------|  |-0-------0------0-------|
D|1-------1--------------------|  |------------------------|
а|----------------0h1-1h3-1-0--|  |------------------------|
е|----------------------------3|  |------------------------|

            2 раза 3 такта                                  2 раза 3 такта
е|------------------|-------------|-------------|-------------------|
B|3-3---3-4-6-4-3-1-|-1-3-4-3-1---|-------------|-------------------|
G|------------------|-----------3-|-2h3-2-------|-------------------|
D|------------------|-------------|-------3-3\5-|-------------------|
а|------------------|-------------|-------------|-5-5---5-6-8-6-5-3-|
е|------------------|-------------|-------------|-------------------|

                                    Gm
е|------------|---------------|------------3|-5-6-8-6-5-5-|
B|------------|---------------|----------3--|-------------|
G|------------|---------------|--------3----|-------------|
D|------------|---------------|------5------|-------------|
а|3-5-6-5-3-1-|-0h1-1\3-1-0---|----5--------|-------------|
е|------------|-------------3-|--3----------|-------------|

                            2 раза               Так сыграть в конце
е|--------|---------------------|  |------------|--------------|
B|3-3-3-3-|---3-4---3--1---3-4-3|  |------------|--------------|
G|--------|-0-----0------0------|  |------------|--------------|
D|--------|---------------------|  |------------|--------------|
а|--------|---------------------|  |-0h1-0------|-1-0----1-0---|
е|--------|---------------------|  |-------1-1\3|-----3------3-|
Добавлено: 25.12.2013
Вам также может быть интересно:
Другие материалы по этой песне:
  • Аккорды и текст

Страница создана 25.12.2013
http://primanota.ru/didyulya/aisedora-chords.htm
Привет, Гость.
Предлагаем пройти революционный курс по гитаре.
Подарок от PrimaNota.Ru, забирай!