PrimaNota.ru - самый крупный в мире бесплатный архив песенных текстов, аккордов, табулатур и нот


Dictators - Who Will Save Rock And Roll - аккорды и текст, видео

Регистрация Запомнить меня
Войти через:  Facebook Google Twitter Vk Yandex Mail.ru

Dictators - Who Will Save Rock And Roll - аккорды и текст, видео

Печатать
Просмотров: 92
Who Will Save Rock And Roll
Dictators
Artist: The Dictators
     Song: Who Will Save Rock and Roll
    Album: D.F.F.D. (Dictators forever, Forever Dictators)
    Track: 1
Tabbed by: Joe

This song is great and it is off their new album. They are a New York punk 
band from the 70's that never made it big, but they are still going strong 
today. I have the whole song except for the solo. and I'm not sure about the 
chorus. 

Intro - guitar 1
e|-------------------|
B|-------------------|
G|-14-13-14-13-14-13-|   play this 10 times
D|-------------------|
A|-------------------|
E|-------------------|

guitar 2 Intro
e|-----------------------------------------|
B|-----------------------------------------|
G|------7:--------5:--------7:-------------|
D|-7:---7:---5:---5:---7:---7:---5:---5-55-|
A|-7:---5:---5:---3:---7:---5:---5:---5-55-|
E|-5:--------3:--------5:--------3:---3-33-|

Verse - guitar 2
e|-----------------------------------------|
B|-----------------------------------------|
G|------7:--------5:--------7:-------------| 2x
D|-7:---7:---5:---5:---7:---7:---5:---5-55-|
A|-7:---5:---5:---3:---7:---5:---5:---5-55-|
E|-5:--------3:--------5:--------3:---3-33-|

Chorus - I'm not sure but I think it is just bass and drums.

Now guitar 2 plays Verse1 2x while guitar 1 plays a little solo that's close 
to what the Intro is.

Verse 1 2x by guitar 2  

Chorus

Solo by guitar 1 which I haven't figured out yet(if anybody can I would 
praise you) and guitar 2 plays the verse 2x over the solo.

Chorus

Verse 2                           then second time end with this 
e|-------------------|           e|-------------|
B|-------------------| play 2x   B|-------------|
G|------7:--------5:-|           G|--------7:---|
D|-7:---7:---5:---5:-|           D|---7:---7:---|
A|-7:---5:---5:---3:-|           A|---7:---5:---|
E|-5:--------3:------|           E|---5:--------|

Outro- guitar 2 plays this while guitar 1 plays the second solo which is 
based around the intro.
e|------------------------------------------------------|
B|------------------------------------------------------|
G|------7:--------5:--------7:--------5:--------7:------|
D|-7:---7:---5:---5:---7:---7:---5:---5:---7:---7:---5:-|
A|-7:---5:---5:---3:---7:---5:---5:---3:---7:---5:---5:-| 
E|-5:--------3:--------5:--------3:--------5:--------3:-| 

     
Добавлено: 02.08.2013
Вам также может быть интересно:
Другие материалы по этой песне:
  • Аккорды и текст

Страница создана 11.04.2012
http://primanota.ru/dictators/who-will-save-rock-and-roll--chords.htm
Привет, Гость.
Предлагаем пройти революционный курс по гитаре.
Подарок от PrimaNota.Ru, забирай!