PrimaNota.ru - самый крупный в мире бесплатный архив песенных текстов, аккордов, табулатур и нот


Dicta License - Daloy Ng Kamalayan - таба, видео

Регистрация Запомнить меня
Войти через:  Facebook Google Twitter Vk Yandex Mail.ru

Dicta License - Daloy Ng Kamalayan - таба, видео

Печатать
Просмотров: 122
            DALOY NG KAMALAYAN BY: DICTA LICENSE
                   transcribed by: fre0n
            visit me at: freongang_08@yahoo.com
                  freongang_81@yahoo.com


intro:         X2  (fast tune)
e|-------------------------------------------|
B|-------------------------------------------|
G|-------------------------------(vibrate)---|
D|-----------------------------------3b------|
A|-------------------------------------------|
E|-2-1-0---2-1-0---2-1-0---2-1-0-------------|

                  X2
e|-----------------------------------------|
B|-----------------------------------------|
G|-----------------------------------------|
D|-0h2-0h2-0h2-0h2—2h3---------------------|
A|-----------------------------------------|
E|-----------------------------------------|
  
  dumadaloy sa akin...     bawat ilog,lawa...
e|------------------------------------------|
B|------------------------------------------|
G|-(let ring)-------------------(let ring)--|
D|---4----------------------------2---------|
A|---4----------------------------2---------|
E|---2----------------------------0---------|

               X2  (fast tune)
e|-------------------------------------------|
B|-------------------------------------------|
G|-------------------------------(vibrate)---|
D|-----------------------------------3b------|
A|-------------------------------------------|
E|-2-1-0---2-1-0---2-1-0---2-1-0-------------|

                  X2
e|-----------------------------------------|
B|-----------------------------------------|
G|-----------------------------------------|
D|-0h2-0h2-0h2-0h2—2h3---------------------|
A|-----------------------------------------|
E|-----------------------------------------|


  makinig sa pahiwatig...  X4
e|-------------------  ---------------------|
B|-------------------  ---------------------|
G|-------------------  ---------------------|
D|--------------1h2--  ---------3-6--5------|
A|--0-3—-0-3--0------  --0-3—-0-1-4--3------|
E|-------------------  ---------------------|

Adlib:
e|-1---------------------------7-9--12--------|
B|-1----------------------7-9-----------12h13-|
G|-0-----------------7-9----------------------|
D|-------------5-7b---------------------------|
A|---------5-7--------------------------------|
E|-----5-7------------------------------------|

e|--1--------------------------------------|
B|--1--------------------------------------|
G|--0---12--10-----------------------------|
D|--------------12-10--9h10----------------|
A|-----------------------------------------|
E|-----------------------------------------|

e|-------------1---------------------------|
B|-------------1---------------------------|
G|-------------0---------------------------|
D|--------12-------14---12-----------------|
A|-7--10---------------------14--10--------|
E|-----------------------------------------|

e|-----------------------------------------|
B|-----------------------------------------|
G|-----------------------------------------|
D|-----------------------------------------|
A|--9h10-9-----9h10-9----------------------|
E|---------10---------10-------------------|

e|--1--------------------------------------|
B|--1--------------------------------------|
G|--0--------10h12---9h11------------------|
D|------12b-----------------12--10---------|
A|-----------------------------------------|
E|-----------------------------------------|

e|--(12)--------(14)-----1-----------------|
B|--------(12)-----------1-----------------|
G|------(harmonics)------0-----------------|
D|-----------------------------------------|
A|-----------------------------------------|
E|-----------------------------------------|
          just follow the sequence            
             <<<>>>



Добавлено: 24.02.2012
Другие материалы по этой песне:
  • Аккорды и текст

Страница создана 24.02.2012
http://primanota.ru/dicta-license/daloy-ng-kamalayan-chords.htm
Привет, Гость.
Предлагаем пройти революционный курс по гитаре.
Подарок от PrimaNota.Ru, забирай!