PrimaNota.ru - самый крупный в мире бесплатный архив песенных текстов, аккордов, табулатур и нот


Dickies - Killer Klowns - текст песни, таба, видео

Регистрация Запомнить меня
Войти через:  Facebook Google Twitter Vk Yandex Mail.ru

Dickies - Killer Klowns - текст песни, таба, видео

Печатать
Просмотров: 253
Уроки эстрадного вокала в Санкт-Петербурге
INTRO
E :--------------------|----------------*2|
B :8-7-6-7-6-7---------|---------------- ||
G :------------8-7-6---|----8---8---7--- ||
D :------------------5-|6---6----------- ||
A :--------------------|---------------- ||
E :--------------------|---------------- ||

G :--------------------|----------------*2|
D :--------------------|---------------- ||
A :3-3-3---3---3-------|----6-------5--- ||
E :----------------3---|4-------3------- ||

===========================================================
VERSE 1
E :| ----------------*3|| ----------------|
B :| ---------------- ||| ----------------|
G :| 5--------------- ||| ----------------|
D :| ---------------- ||| ----------------|
A :| ---------------- ||| ----------------|
E :| ---------------- ||| ----------------|

G :| ----------------*3|| ----------------|
D :| ---------------- ||| ----------------|
A :| 3-3-3-3-3-3-3-3- ||| 3-3-3-3-3-3-3-3-|
E :| ---------------- ||| ----------------|

===========================================================

E :----------------|----------------|----------------*1|
B :----------------|----------------|---------------- ||
G :----------------|----------------|---------------- ||
D :----------------|----------------|------------8--- ||
A :----------------|----------------|3-------5---6--- ||
E :----------------|----------------|1-------3------- ||

G :----------------|----------------|----------------*1|
D :----------------|----------------|---------------- ||
A :3-3-3-3-3-3-3-3-|3-3-3-3-3-3-3-3-|------------6--- ||
E :----------------|----------------|1-------3------- ||

===========================================================

PRE-CHORUS
E :| ----------------|----------------|
B :| ----------------|----------------|
G :| ----------------|----------------|
D :| ----------------|----------------|
A :| ----------------|----------------|
E :| ----------------|----------------|

G :| ----------------|----------------|
D :| ----------------|----------------|
A :| ----------------|----------------|
E :| 1-1-1-1-1-1-1-1-|3-3-3-3-3-3-3-3-|

===========================================================

E :-----------12-10-8---|----------12-10-8---|
B :11------11-----------|-------11-----------|
G :---8-10--------------|--8-10--------------|
D :---------------------|--------------------|
A :---------------------|--------------------|
E :---------------------|--------------------|

G :---------------------|--------------------|
D :---------------------|--------------------|
A :-1----------3--------|1----------3--------|
E :---------------------|--------------------|

===========================================================

E :----------------|----------------|
B :----------------|----------------|
G :----------------|----------------|
D :----------------|----------------|
A :----------------|----------------|
E :----------------|----------------|

G :----------------|----------------|
D :----------------|----------------|
A :----------------|----------------|
E :1-1-1-1-1-1-1-1-|3-3-3-3-3-3-3-3-|

===========================================================

CHORUS
E :| --------------------|----------------*3|
B :| 8-7-6-7-6-7---------|---------------- ||
G :| ------------8-7-6---|----8---8---7--- ||
D :| ------------------5-|6---6----------- ||
A :| --------------------|---------------- ||
E :| --------------------|---------------- ||

G :| --------------------|----------------*3|
D :| --------------------|---------------- ||
A :| 3-3-3---3---3-------|----6-------5--- ||
E :| ----------------3---|4-------3------- ||

===========================================================

VERSE 2
E :| ----------------*3|| ----------------|
B :| ---------------- ||| ----------------|
G :| 5--------------- ||| ----------------|
D :| ---------------- ||| ----------------|
A :| ---------------- ||| ----------------|
E :| ---------------- ||| ----------------|

G :|*----------------*3||*----------------|
D :| ---------------- ||| ----------------|
A :| 3-3-3-3-3-3-3-3- ||| 3-3-3-3-3-3-3-3-|
E :| ---------------- ||| ----------------|

===========================================================

E :----------------|----------------|----------------*1|
B :----------------|----------------|---------------- ||
G :----------------|----------------|------------8--- ||
D :----------------|----------------|3-------5---8--- ||
A :----------------|----------------|3-------5---6--- ||
E :----------------|----------------|1-------3------- ||

G :----------------|----------------|----------------*1|
D :----------------|----------------|---------------- ||
A :3-3-3-3-3-3-3-3-|3-3-3-3-3-3-3-3-|------------6--- ||
E :----------------|----------------|1-------3------- ||

===========================================================

PRE-CHORUS
E :| ----------------|----------------|
B :| ----------------|----------------|
G :| ----------------|----------------|
D :| ----------------|----------------|
A :| ----------------|----------------|
E :| ----------------|----------------|

G :| ----------------|----------------|
D :| ----------------|----------------|
A :| ----------------|----------------|
E :| 1-1-1-1-1-1-1-1-|3-3-3-3-3-3-3-3-|

===========================================================

E :8---------12-10-8---|----------12-10-8---|
B :-------11-----------|-------11-----------|
G :--8-10--------------|--8-10--------------|
D :--------------------|--------------------|
A :--------------------|--------------------|
E :--------------------|--------------------|

G :--------------------|--------------------|
D :--------------------|--------------------|
A :1----------3--------|1----------3--------|
E :--------------------|--------------------|

===========================================================

E :----------------|----------------|
B :----------------|----------------|
G :----------------|----------------|
D :----------------|----------------|
A :----------------|----------------|
E :----------------|----------------|

G :----------------|----------------|
D :----------------|----------------|
A :----------------|----------------|
E :1-1-1-1-1-1-1-1-|3-3-3-3-3-3-3-3-|

===========================================================

CHORUS
E :| --------------------|----------------*3|
B :| 8-7-6-7-6-7---------|---------------- ||
G :| ------------7-6-5---|----8---8---7--- ||
D :| ------------------5-|6---6---6------- ||
A :| --------------------|---------------- ||
E :| --------------------|---------------- ||

G :| --------------------|----------------*3|
D :| --------------------|---------------- ||
A :| 3-3-3---3---3-------|----6-------5--- ||
E :| ----------------3---|4-------3------- ||

===========================================================

MIDDLE 8
E :------------------|------------------|
B :------------------|------------------|
G :------------------|------------------|
D :------------------|------------------|
A :------------------|------------------|
E :3~-------3~-------|3~-------3~-------|


G :------------------|------------------|
D :------------------|------------------|
A :------------------|------------------|
E :3--------3--------|3--------3--------|

===========================================================

E :----------------|----------------|------------------|
B :----------------|----------------|------------------|
G :----------------|----------------|------------------|
D :5---------------|3---------------|------------------|
A :3-------5-------|1-------3-------|------------------|
E :--------3-------|--------1-------|3~-------3~-------|


G :----------------|----------------|------------------|
D :----------------|----------------|------------------|
A :3---------------|1---------------|------------------|
E :--------3-------|--------1-------|3--------3--------|

===========================================================

E :------------------|----------------|----------------|
B :------------------|----------------|----------------|
G :------------------|----------------|----------------|
D :------------------|5-----------6---|7-----------8---|
A :------------------|3-----------4---|5-----------6---|
E :3~-------3~-------|----------------|----------------|


G :------------------|----------------|----------------|
D :------------------|----------------|----------------|
A :------------------|3-----------4---|5-----------6---|
E :3--------3--------|----------------|----------------|

===========================================================

E :-----------------|------------------|
B :-----------------|------------------|
G :-----------------|------------------|
D :9-----------10---|11-------12-------|
A :7------------8---|-9-------10-------|
E :-----------------|------------------|


G :-----------------|------------------|
D :-----------------|------------------|
A :7------------8---|-9-------10-------|
E :-----------------|------------------|

===========================================================

GUITAR SOLO
E :8-7-6-7-6-7---------|--------------------|
B :------------8-7-6-7-|8-7-6-7-6-7---------|
G :--------------------|------------8-7-6-7-|
D :--------------------|--------------------|
A :--------------------|--------------------|
E :--------------------|--------------------|


G :--------------------|--------------------|
D :--------------------|--------------------|
A :3-3-3---3---3---*---|3-3-3---3---3---*---|
E :----------------3---|*---------------3---|

===========================================================

E :------------------|----------------------------|
B :8--------8--------|------------------6-7-8-7-6-|
G :---6-6-7----6-6-7-|------------6-7-8-----------|
D :------------------|------6-7-8-----------------|
A :------------------|6-7-8-----------------------|
E :------------------|----------------------------|


G :------------------|----------------------------|
D :------------------|----------------------------|
A :-----5---*----5---|----------------------------|
E :3----*---3----*---|3-------3-------3-------3---|

===========================================================

E :8-7-6-7-6-7---------|--------------------|
B :------------8-7-6-7-|8-7-6-7-6-7---------|
G :--------------------|------------7-6-5-6-|
D :--------------------|--------------------|
A :--------------------|--------------------|
E :--------------------|--------------------|


G :--------------------|--------------------|
D :--------------------|--------------------|
A :3-3-3---3---3---*---|3-3-3---3---3---*---|
E :----------------3---|*---------------3---|

===========================================================

E :------------------|----------------------------|
B :8--------8--------|------------------6-7-8-7-6-|
G :---6-6-7----6-6-7-|------------6-7-8-----------|
D :------------------|------6-7-8-----------------|
A :------------------|6-7-8-----------------------|
E :------------------|----------------------------|


G :------------------|----------------------------|
D :------------------|----------------------------|
A :-----5---*----5---|----------------------------|
E :3----*---3----*---|3-------3-------3-------3---|

===========================================================

E :| ----------------------|------------------*2|
B :| 10-9-8-9-8-9----------|------------------ ||
G :| -------------10-9-8---|----10---10---9--- ||
D :| --------------------9-|8----8------------ ||
A :| ----------------------|------------------ ||
E :| ----------------------|------------------ ||

G :| ----------------------|------------------*2|
D :| ----------------------|------------------ ||
A :| -5-5-5---5----5-------|-----8--------7--- ||
E :| ------------------5---|6---------5------- ||

===========================================================

VERSE 3
E :| ----------------*3|| ----------------|
B :| ---------------- ||| ----------------|
G :| 7--------------- ||| ----------------|
D :| ---------------- ||| ----------------|
A :| ---------------- ||| ----------------|
E :| ---------------- ||| ----------------|


G :| ----------------*3|| ----------------|
D :| ---------------- ||| ----------------|
A :| 5-5-5-5-5-5-5-5- ||| 5-5-5-5-5-5-5-5-|
E :| ---------------- ||| ----------------|

===========================================================

E :----------------|----------------|-----------------*1|
B :----------------|----------------|----------------- ||
G :----------------|----------------|------------10--- ||
D :----------------|----------------|5-------7---10--- ||
A :----------------|----------------|5-------7----8--- ||
E :----------------|----------------|3-------5-------- ||


G :----------------|----------------|-----------------*1|
D :----------------|----------------|----------------- ||
A :5-5-5-5-5-5-5-5-|5-5-5-5-5-5-5-5-|-------------8--- ||
E :----------------|----------------|3-------5-------- ||

===========================================================

E :| ----------------|----------------|
B :| ----------------|----------------|
G :| ----------------|----------------|
D :| ----------------|----------------|
A :| ----------------|----------------|
E :| ----------------|----------------|


G :| ----------------|----------------|
D :| ----------------|----------------|
A :| ----------------|----------------|
E :| 3-3-3-3-3-3-3-3-|5-5-5-5-5-5-5-5-|

===========================================================

E :10----------14-12-10---|-----------14-12-10---|
B :---------13------------|--------13------------|
G :---10-12---------------|--10-12---------------|
D :-----------------------|----------------------|
A :-----------------------|----------------------|
E :-----------------------|----------------------|


G :-----------------------|----------------------|
D :-----------------------|----------------------|
A :-------------5---------|------------5---------|
E :-7---------------------|7---------------------|

===========================================================

E :----------------|----------------|
B :----------------|----------------|
G :----------------|----------------|
D :----------------|----------------|
A :----------------|----------------|
E :----------------|----------------|


G :----------------|----------------|
D :----------------|----------------|
A :----------------|----------------|
E :3-3-3-3-3-3-3-3-|5-5-5-5-5-5-5-5-|

===========================================================

REPEAT TO FADE
E :| -----------------------|----------------- ||
B :| 10-9-8-9-8-9-----------|----------------- ||
G :| -------------10-9-8----|---10---10---9--- ||
D :| --------------------7-8|----8----8------- ||
A :| -----------------------|----------------- ||
E :| -----------------------|----------------- ||

G :| -----------------------|----------------- ||
D :| -----------------------|----------------- ||
A :| -5-5-5---5----5--------|----8--------7--- ||
E :| ------------------5---6|---------5------- ||
Добавлено: 20.07.2012
Другие материалы по этой песне:
  • Аккорды и текст

Страница создана 24.04.2012
http://primanota.ru/dickies/killer-klowns-chords.htm
Привет, Гость.
Предлагаем пройти революционный курс по гитаре.
Подарок от PrimaNota.Ru, забирай!