PrimaNota.ru - самый крупный в мире бесплатный архив песенных текстов, аккордов, табулатур и нот


Dickies - Give It Back - текст песни, таба, видео

Регистрация Запомнить меня
Войти через:  Facebook Google Twitter Vk Yandex Mail.ru

Dickies - Give It Back - текст песни, таба, видео

Печатать
Просмотров: 190
Авторы музыки: Steve Hufsteter, Stan Lee, Leonard Graves Phillips

Band - The Dickies
Song - Give It Back
Tabbed By : SumFX (Tyler Freear)

Very Easy Punk Song! Barre Chords Are Advised, 
But 5ths (powerchords) sound just as good!

More Dickies coming soon.........

Intro
|------------|
|------------|
|--Feedback!-|
|------------|
|------------|
|-3~---------|

Verse (Strumming Is Easy To Figure Out)
|-------------------|
|-------------------|
|-8---------5-------|
|-8----8----5----5--|
|-6----8----3----5--|
|------6---------3--|

Chorus
|----------------------|
|----------------------|
|----------------------|
|-8-----3-----5-----5--|
|-8-----3-----5-----5--|
|-6-----1-----3-----3--|

Solo (Sounds Good To Me, Tell Me What YOU Think!)
|---------|------------------|---------|----------------|
|-6-5-3-5-|-3-0-3-5--3-0-3-0-|-5-3-0-3-|-5-3-0--3-5-3-0-|
|-5-5-3-5-|-3-0-3-5--3-0-3-0-|-5-3-0-3-|-5-3-0--3-5-3-0-|
|---------|------------------|---------|----------------|
|---------|------------------|---------|----------------|
|---------|------------------|---------|----------------|

There You Go! Rate & Comments Would Be Awesome!

I Don't Usually Do This But The Lyrics Are So Cool! I Must Add Them!

GIVE IT BACK

ONE DAY I WAS WALKING TO SCHOOL
I SAW THESE BULLIES AND THEY THOUGHT THEY WERE COOL
THEY PUT ME DOWN AND THEY PUSHED ME AROUND
THEY STOLE MY BOOKS AND THEY CALLED ME A CLOWN

GIVE IT BACK (BACK) BACK (BACK)
GIVE IT BACK YOU BETTER GIVE IT BACK

I WENT TO SCHOOL YEAH I WENT ANYWAY
I SAID I'D SHOW THEM ANOTHER DAY
I SHOWED THEM ALL WHAT I COULD DO
I GOT 'EM THROWN RIGHT OUT OF SCHOOL

I GOT EM BACK BACK (BACK) BACK (BACK)
YEAH I GOT EM BACK
YOU KNOW I GOT EM BACK

THAT NIGHT I WAS WALKING HOME
AND WHEN THEY CAUGHT ME I WAS ALL ALONE
A BLOODY NOSE AND A BROKEN BONE
I THOUGHT THOSE BRATS WERE GOING TO LEAVE ME ALONE

THEY GOT ME BACK (BACK) BACK (BACK)
THEY GOT ME BACK
YOU KNOW THEY GOT ME BACK
I TELL YA THEY GOT ME BACK (BACK) BACK (BACK)
YEAH THEY GOT ME BACK
YOU KNOW THEY GOT ME THEY GOT ME BACK
Добавлено: 01.05.2012
Другие материалы по этой песне:
  • Аккорды и текст

Страница создана 25.02.2012
http://primanota.ru/dickies/give-it-back-chords.htm
Привет, Гость.
Предлагаем пройти революционный курс по гитаре.
Подарок от PrimaNota.Ru, забирай!