PrimaNota.ru - самый крупный в мире бесплатный архив песенных текстов, аккордов, табулатур и нот


Dick Valentine - Gimme Five - таба, видео

Регистрация Запомнить меня
Войти через:  Facebook Google Twitter Vk Yandex Mail.ru

Dick Valentine - Gimme Five - таба, видео

Печатать
Просмотров: 143
Авторы музыки: Tyler Spencer
Авторы текста: Tyler Spencer
-------------------------------------------------------------------------------
                             Gimme Five - Dick Valentine
-------------------------------------------------------------------------------
Album: Halloween Fingers
Tabbed by: Mel
E-mail: melectricsix@gmail.com


[intro and verse]
e|-----------------------|
B|-----------------------|
G|--------0--------------|
D|---9-9--9---12-12--5---|
A|---9-9--9---12-12--5---|
E|---7-7--7---10-10--3---|x2

[bridge1]
e|----------------------------------------------|
B|----------------------------------------------|
G|----------------------------------------------|
D|--7--7---9---5---12--12--7--7--7--7---9---5---|
A|--7--7---9---5---12--12--7--7--7--7---9---5---|
E|--5--5---7---3---10--10--5--5--5--5---7---3---|

[bridge2]
e|----------------------------------------------------------------|
B|----------------------------------------------------------------|
G|----------------------------------------------------------------|
D|--7--7---9---5---12--12--7--7--7--7---9---5--12--5---12--5------|
A|--7--7---9---5---12--12--7--7--7--7---9---5--12--5---12--5------|
E|--5--5---7---3---10--10--5--5--5--5---7---3--10--3---10--3------|

[chorus]
D                     Em    G
gimme one of your deadliest guns
    D                 Em    G
gimme two of your hot sticky buns
     D                            Em       G
gimme three or four tickets to the midnight show


gimme five up high, down low too slow
e|--------------------------|
B|--------------------------|
G|--------------------------|
D|----7-7----------9---5----|
A|----7-7----------9---5----|
E|----5-5----------7---3----|

[intro]
[verse]
Sharpest knives for the five mid wives
And you were just a dirty orphan
Spending every second of their lives
Boozing on the new endorphin

[bridge1]
Reminds me of the time time took it's time with me
Reminds me of the time you talked to me

[verse]
And told me what the rapture was
And how it was all untrue
My pockets only holding dirt and fuzz
but I should be the one to tell you

[bridge2]
Only one out of a hundred teenage vampires
Never gets to feed
And I'll see you in the corn fed wonderland
Where the clown girls go to bleed
Where the clown girls go to bleed

[chorus]
Gimme one of your deadliest guns
Gimme two of your hot sticky buns
Gimme three or four tickets to the midnight show
Gimme five up high, down low too slow

[verse]
Drinking drinks and holding a grudge
Against Lady Antebellum
And when you find your self before the judge
You best be prepared to tell them

[bridge2]
Only one out of a hundred circus lions jumps through a hoop for me
And I'll see you in the mystery public toilet where the teddy bears go to pee
Where to teddy bears go to pee

[chorus]
Gimme one of summer years
Gimme two of three of your living heirs
Gimme four of what ever keeps you alive
Gimme five lover
C'mon and gimme five

C'mon and gimme five, C'mon and gimme five, C'mon and gimme five, Five
e|---------------------------------------|
B|---------------------------------------|
G|---------------------------------------|
D|--12----7--5----------7----9--5--------|
A|--12----7--5----------7----9--5--------|
E|--10----5--3--[x3]----5----7--3--------|
[intro]
Добавлено: 13.08.2013
Другие материалы по этой песне:
  • Аккорды и текст

Страница создана 13.08.2013
http://primanota.ru/dick-valentine/gimme-five-chords.htm
Привет, Гость.
Предлагаем пройти революционный курс по гитаре.
Подарок от PrimaNota.Ru, забирай!