PrimaNota.ru - самый крупный в мире бесплатный архив песенных текстов, аккордов, табулатур и нот


Dick Mcdonough - The Ramble - таба, видео

Регистрация Запомнить меня
Войти через:  Facebook Google Twitter Vk Yandex Mail.ru

Dick Mcdonough - The Ramble - таба, видео

Печатать
Просмотров: 94
E|----------|-10----------------------------------------|-10----------------------------------------|
B|-------10-|-10---10--------------------------------10-|-10---10--------------------------------10-|
G|-10/11-11-|------11---11---7---7-10-11-12----10/11-11-|------11---11---7---7-10-11-12----10/11-11-|
D|-11/12----|-----------12---9---7--9-10-11----11/12----|-----------12---9---7--9-10-11----11/12----|
A|----------|--------------------9-10-11-12-------------|--------------------9-10-11-12-------------|
E|----------|-------------------------------------------|-------------------------------------------|

E|-10--8-10-7-------------7-10--7-10-|-7-|
B|-10--7----7---10---8-10----9--9--9-|-7-|
G|-----7----7---11---7-------7-----7-|-7-|
D|-----7--------12---9-------9-------|-7-|
A|-----------------------------------|---|
E|-----------------------------------|---|

E|----------|-10----------------------------------------|-10----------------------------------------|
B|-------10-|-10---10--------------------------------10-|-10---10--------------------------------10-|
G|-10/11-11-|------11---11---7---7-10-11-12----10/11-11-|------11---11---7---7-10-11-12----10/11-11-|
D|-11/12----|-----------12---9---7--9-10-11----11/12----|-----------12---9---7--9-10-11----11/12----|
A|----------|--------------------9-10-11-12-------------|--------------------9-10-11-12-------------|
E|----------|-------------------------------------------|-------------------------------------------|

E|-10--8-10-7-------------7-10--7-10-|-10-|
B|-10--7----7---10---8-10----9--9--9-|-10-|
G|-----7----7---11---7-------7-----7-|-11-|
D|-----7--------12---9-------9-------|----|
A|-----------------------------------|----|
E|-----------------------------------|----|

E|------------------------------------------------------5--7-|
B|-9---8---6---7------7-------------9-9-8---6---7-----7----5-|
G|-7---7---5---6---6-----4----------7-7-7---5---6---6------5-|
D|-9---9---6---7---7-----6---7-5-6--9-9-9---6---7---7------4-|
A|---------------------------------------------------------0-|
E|-----------------------------------------------------------|

E|---------------------9-7-9--7--------12----------------------7----|---9-7-----------|
B|-8-10-8-7--8---5-6-7-7------7--------------11----9---8--7----7----|-7-----------7---|
G|-7---------7---------7------7-----9--------10----8---7--6----7----|-7-------7-9---9-|
D|-9---------8---------7------6--------------12---10---8--7----7----|-6-------6-------|
A|------------------------------------------------------------------|-----------------|
E|------------------------------------------------------------------|-----------------|

E|------------------------------------------------------5--7-|
B|-9---8---6---7------7-------------9-9-8---6---7-----7----5-|
G|-7---7---5---6---6-----4----------7-7-7---5---6---6------5-|
D|-9---9---6---7---7-----6---7-5-6--9-9-9---6---7---7------4-|
A|---------------------------------------------------------0-|
E|-----------------------------------------------------------|

E|---------------------9-7-9--7--------12-------------------------10-10-9-7---7---------------|
B|-8-10-8-7--8---5-6-7-7------7--------------11----9---8--7--------7--7---8-----8--7----9-----|
G|-7---------7---------7------7-----9--------10----8---7--6--------7--7---7--------7----6-----|
D|-9---------8---------7------6--------------12---10---8--7--------9--9---9--------7----7-----|
A|--------------------------------------------------------------------------------------6-----|
E|--------------------------------------------------------------------------------------7-----|

E|-7-4-------7-----5---------5-7-5-|-7-4-------7-----5-----------------|
B|-5---5-4-7---7---5-5-5-7-8-5-5-5-|-5---5-4-7---7---5-5-5-7-8--5------|
G|-4---4---7-----7-6-6-6-6-6-6-----|-4---4---7-----7-6-6-6-6-6--6--6---|
D|-6-------6-------7---------------|-6-------6-------7-------------7---|
A|---------------------------------|-----------------------------------|
E|---------------------------------|-----------------------------------|

E|-7-4-------7-----7--5---7---5----|----/4-------------------------7---|
B|-5---5-4-7---7---5--5---5---5-5--|-/4-/4--5-7-5---5--5---5-------7---|
G|-4---4---7-----7-6--6---5-----5--|-/4-/4--6-6-6-6-4--6---4-------8---|
D|-6-------6-------7------4--------|-/4-----7-----7-6--7---6-------9---|
A|---------------------------------|-----------------------------------|
E|---------------------------------|-----------------------------------|

E|-7-4-------7-----5---------5-7-5-|-7-4-------7-----5-----------------|
B|-5---5-4-7---7---5-5-5-7-8-5-5-5-|-5---5-4-7---7---5-5-5-7-8--7--5---|
G|-4---4---7-----7-6-6-6-6-6-6-----|-4---4---7-----7-6-6-6-6-6--6--6---|
D|-6-------6-------7---------------|-6-------6-------7-----------------|
A|---------------------------------|-----------------------------------|
E|---------------------------------|-----------------------------------|

E|-7-4-------7-----7--5---7---5----|----/4-------------7-9-------------|
B|-5---5-4-7---7---5--5---5---5-5--|-/4-/4--5-7-5--8/9---9---9---------|
G|-4---4---7-----7-6--6---5-----5--|-/4-/4--6-6-6--7/8-------9---------|
D|-6-------6-------7------4--------|-/4-----7------8/9-------9---------|
A|---------------------------------|-------------------------7---------|
E|---------------------------------|-----------------------------------|


E|-12----8/9---12--8/9---12----8/9---12---9----9\8--9-------9-------9--12-|
B|--8----9/10------9/10--10----9/10------10----9\8--9-------7-------7---9-|
G|--9----8/9-------8/9---------8/9-------------9\8--9-------7-------7---9-|
D|-11------------------------------------------9\8--9-------6-8-7-6---9---|
A|------------------------------------------------------------------------|
E|------------------------------------------------------------------------|

E|-12----8/9---12--14----12----8/9---12--11---9---9---------------9-12-9------7-9-|
B|--8----9/10------14-----8----9/10-------9---9---9-12-9-10---9---9-------8/9---9-|
G|--9----8/9-------14-----9----8/9--------9---9---9----9-10--10---9-------7/8-----|
D|-11--------------14----11---------------9-------9------12--11---8-------8/9-----|
A|--------------------------------------------------------------------------------|
E|--------------------------------------------------------------------------------|

E|-7-4-------7-----5---------5-7-5-|-7-4-------7-----5-----------------|
B|-5---5-4-7---7---5-5-5-7-8-5-5-5-|-5---5-4-7---7---5-5-5-7-8--5------|
G|-4---4---7-----7-6-6-6-6-6-6-----|-4---4---7-----7-6-6-6-6-6--6--6---|
D|-6-------6-------7---------------|-6-------6-------7-------------7---|
A|---------------------------------|-----------------------------------|
E|---------------------------------|-----------------------------------|

E|-7-4-------7-----7--5---7---5----|----/4-----------------------------|
B|-5---5-4-7---7---5--5---5---5-5--|-/4-/4--5-7-5-3/4-5-7--5-----------|
G|-4---4---7-----7-6--6---5-----5--|-/4-/4--6-6-6-3/4-6-6--4-----------|
D|-6-------6-------7------4--------|-/4-----7-----3/4-7-7--6-----------|
A|---------------------------------|-----------------------------------|
E|---------------------------------|-----------------------------------|

E|-----------6-7---14-13-14--12----|
B|-7-5-6---7-------12--------12----|
G|-7-------7-------12--------12----|
D|-6-------6-------12--------11----|
A|---------------------------------|
E|---------------------------------|

E|----------|-10----------------------------------------|-10----------------------------------------|
B|-------10-|-10---10--------------------------------10-|-10---10--------------------------------10-|
G|-10/11-11-|------11---11---7---7-10-11-12----10/11-11-|------11---11---7---7-10-11-12----10/11-11-|
D|-11/12----|-----------12---9---7--9-10-11----11/12----|-----------12---9---7--9-10-11----11/12----|
A|----------|--------------------9-10-11-12-------------|--------------------9-10-11-12-------------|
E|----------|-------------------------------------------|-------------------------------------------|

E|-10--8-10-7-8----7------7-10--7-10-|-7-|
B|-10--7----7---10---8-10----9--9--9-|-7-|
G|-----7----7----7---7-------7-----7-|-7-|
D|-----7-------------9-------9-------|-7-|
A|-----------------------------------|---|
E|-----------------------------------|---|

E|----------|-10----------------------------------------|-10----------------------------------------|
B|-------10-|-10---10--------------------------------10-|-10---10--------------------------------10-|
G|-10/11-11-|------11---11---7---7-10-11-12----10/11-11-|------11---11---7---7-10-11-12----10/11-11-|
D|-11/12----|-----------12---9---7--9-10-11----11/12----|-----------12---9---7--9-10-11----11/12----|
A|----------|--------------------9-10-11-12-------------|--------------------9-10-11-12-------------|
E|----------|-------------------------------------------|-------------------------------------------|

E|-10--8-10-7-8----7------7-10--7-14-|-10-|
B|-10--7----7---10---8-10----9--9-12-|-10-|
G|-----7----7----7---7-------7----13-|-11-|
D|-----7-------------9-------9----12-|----|
A|-----------------------------------|----|
E|-----------------------------------|----|

E|------------------------------------------------------5--7--------|
B|-9---8---6---7------7-------------9-9-8---6---7-----7----5--------|
G|-7---7---5---6---6-----4----------7-7-7---5---6---6------5--------|
D|-9---9---6---7---7-----6---7-5-6--9-9-9---6---7---7------4--------|
A|---------------------------------------------------------0--------|
E|------------------------------------------------------------------|

E|---------------------9-7-9--7--------12----------------------7----|---9-7-----------|
B|-8-10-8-7--8---5-6-7-7------7--------------11----9---8--7----7----|-7-----------7---|
G|-7---------7---------7------7-----9--------10----8---7--6----7----|-7-------7-9---9-|
D|-9---------8---------7------6--------------12---10---8--7----7----|-6-------6-------|
A|------------------------------------------------------------------|-----------------|
E|------------------------------------------------------------------|-----------------|

E|------------------------------------------------------5--7-----11-|
B|-9---8---6---7------7-------------9-9-8---6---7-----7----5--------|
G|-7---7---5---6---6-----4----------7-7-7---5---6---6------5---7----|
D|-9---9---6---7---7-----6---7-5-6--9-9-9---6---7---7------4--------|
A|---------------------------------------------------------0--------|
E|------------------------------------------------------------------|

E|---------------------9-7-9--7--------12----------------------7----|
B|-8-10-8-7--8---5-6-7-7------7--------------11----9---8--7----7----|
G|-7---------7---------7------7-----9--------10----8---7--6----7----|
D|-9---------8---------7------6--------------12---10---8--7----7----|
A|------------------------------------------------------------------|
E|------------------------------------------------------------------|

E|----------14------------------------14\13/14------------|
B|-12-14-15-12----------12---14--15---12----12------------|
G|----------13------------------------12------------------|
D|----------12------------------------11------------------|
A|--------------------------------------------------------|
E|--------------------------------------------------------|

E|------------------------10-------|
B|-3--5--6--8--9-11-12-14-10-------|
G|-2-----5-----8----11----11-------|
D|-4-----7----10----13----12-------|
A|---------------------------------|
E|---------------------------------|
Добавлено: 13.10.2015
Другие материалы по этой песне:
  • Аккорды и текст

Страница создана 13.10.2015
http://primanota.ru/dick-mcdonough/ramble-chords.htm
Привет, Гость.
Предлагаем пройти революционный курс по гитаре.
Подарок от PrimaNota.Ru, забирай!