PrimaNota.ru - самый крупный в мире бесплатный архив песенных текстов, аккордов, табулатур и нот


Dick Diver - Waste The Alphabet - аккорды и текст, видео

Регистрация Запомнить меня
Войти через:  Facebook Google Twitter Vk Yandex Mail.ru

Dick Diver - Waste The Alphabet - аккорды и текст, видео

Печатать
Просмотров: 61
Уроки эстрадного вокала в Санкт-Петербурге
Waste The Alphabet
Dick Diver
Dick Diver - Waste the Alphabet


[Intro]
F C G x4


[Verse 1]
F       C         G                F C G
   When we make up in your make up
F       C         G                   F C G
 I start to laugh, I'm mister natural
F           C              G
 I fell off the TV at night 
F          C         G
 you got a hard hard bed
F        C              Am   G
 Say the name, say the name
F     C             G
 Waste the alphabet

F C G x4

[Verse 2]
F   C   G     
 9 to 5, look in the mirror
F  C                  G
 I can see China from here
F        C              Am   G   
 Say the name, say the name
F         C          G
 And they disappear

[Chorus]
F   C       Am   G     F         C              G   
 Oh Natalie, we sparkle, but you wanna take it gradually
F     C                      Am  G 
 I've been thinking bout the way to help
F         C            G
 And this carpet under me
F         C            G  
 And this remote under me

[Bridge]
Am  G  F  C
F  C  G
Am  G  F  C
F  C  G x2


[Chorus]
F   C       Am  G 
 Oh Natalie, we party
F        C           G 
 and try, try, try gradually
F     C                     Am  G
 I've been thinking bout my way to help
F         C            G 
 And this remote under me
F         C              G
 And this lipstick under me

                                        
                                            
                                            
                                        
                                                                
                        
                        
                        
                                                        
    /* Ultimate-Guitar - Tab Pages */
    (function() {
        var opts = {
            artist: "Dick Diver",
            song: "Waste The Alphabet",
            genre: "",
            adunit_id: 39382312,
            div_id: "cf_async_" + Math.floor((Math.random() * 999999999)),
            hostname: "srv.tonefuse.com"
        };
        document.write('');var c=function(){cf.showAsyncAd(opts)};if(window.cf)c();else{cf_async=!0;var r=document.createElement("script"),s=document.getElementsByTagName("script")[0];r.async=!0;r.src="//"+opts.hostname+"/showads/showad.js";r.readyState?r.onreadystatechange=function(){if("loaded"==r.readyState||"complete"==r.readyState)r.onreadystatechange=null,c()}:r.onload=c;s.parentNode.insertBefore(r,s)};
    })();
    
    
                        
                                                    
                                                                    
                                    
                                     var amznTargs='';
                                     var key = 'amznslots';
                                     if ("amznads" in window) var values = amznads.getTokens('3x2'); //comma separated tokens
                                     if (values.length > 0) amznTargs='&'+key+'='+values;
                                    document.write('');
                                    
                                    
                                                            
                                                

                    

                
                
                
                    
                        comments
                    
                                            
                            We did not receive enough feedback on this tab! Please rate:
                        
                                        
                        print report bad tab
                    
                                            
                                                            1
                                                            2
                                                            3
                                                            4
                                                            5
                                                    
                                    
                
                                    
                
                    
                             
    
        1 comment total. 
            
    
                                
                
                
                    
                        
                            
                                
                                    
                                    
                                
                                                                    0
                                                            
                            reply
                            
                            
                        
                        weino523 wrote on March 21 2015, 05:36 pm  
                    
                    
                        Here is the bridge



e|---------------------------------------------------------------|
B|--------3------------------------------------------------------|
G|--2-4-5---5-4---5-4----5-4-2-----------------------------------|
D|--------------3------2-----------------------------------------|
A|---------------------------------------------------------------|
E|---------------------------------------------------------------|

e|--------------------------1-3----------------------------------|
B|--6-5-3-5-1-3-5-------3-5--------------------------------------|
G|----------------2-4-5------------------------------------------|
D|---------------------------------------------------------------|
A|---------------------------------------------------------------|
E|---------------------------------------------------------------|

e|---------------------------------------------------------------|
B|--------3------------------------------------------------------|
G|--2-4-5---5-4---5-4----5-4-2-----------------------------------|
D|--------------3------2-----------------------------------------|
A|---------------------------------------------------------------|
E|---------------------------------------------------------------|

e|--------7-5---7--------------7-5---7---------------1-3---------|
B|------------8---8-5--------------8---8-5-------3-5-------------|
G|--4-5-7-------------7--4-5-7-------------2-4-5-----------------|
D|---------------------------------------------------------------|
A|---------------------------------------------------------------|
E|---------------------------------------------------------------|
Добавлено: 22.08.2015
Другие материалы по этой песне:
  • Аккорды и текст

Страница создана 22.08.2015
http://primanota.ru/dick-diver/waste-alphabet-chords.htm
Привет, Гость.
Предлагаем пройти революционный курс по гитаре.
Подарок от PrimaNota.Ru, забирай!