PrimaNota.ru - самый крупный в мире бесплатный архив песенных текстов, аккордов, табулатур и нот


Dick Dale - Mag Wheels - таба, видео

Регистрация Запомнить меня
Войти через:  Facebook Google Twitter Vk Yandex Mail.ru

Dick Dale - Mag Wheels - таба, видео

Печатать
Просмотров: 125
ye gatta palm mute

                           Mag Wheels!
|--------------------------------------|
|--------------------------------------|
|--------------------------------------|
|---------------5--3-----5-------------|
|---------------------3----------------|
|-----15/-3--3-------------------------|


the rest is:

|-------------------------------------------------------|
|-------------------------------------------------------|
|-------------------------------------------------------|
|-----------5--3-------------5--3-----------5--3-----5--|
|-----------------5----------------5--------------5-----|
|-----3--3------------3--3------------3--3--------------|

and then:

|-------------------------------------------------------|
|-------------------------------------------------------|
|-----------5--3-------------5--3-----------5--3-----5--|
|-----------------5----------------5--------------5-----|
|-----3--3------------3--3------------3--3--------------|
|-------------------------------------------------------|


|-------------------------------------------------------|
|-------------------------------------------------------|
|-------------------------------------------------------|
|-----------5--3-------------5--3-----------5--3-----5--|
|-----------------5----------------5--------------5-----|
|-----3--3------------3--3------------3--3--------------|

|-----------------------------------------------|
|-----------------------------------------------|
|---------9--7----------5--3--------------------|
|---------------9------------5-------5--3----5--|
|---7--7------------3--3-------------------5----|
|-------------------------------3--3------------|


that's better

-bert
Добавлено: 07.05.2012
Другие материалы по этой песне:
  • Аккорды и текст

Страница создана 07.05.2012
http://primanota.ru/dick-dale/mag-wheels-chords.htm
Привет, Гость.
Предлагаем пройти революционный курс по гитаре.
Подарок от PrimaNota.Ru, забирай!