PrimaNota.ru - самый крупный в мире бесплатный архив песенных текстов, аккордов, табулатур и нот


Dick Dale - Haji - таба, видео

Регистрация Запомнить меня
Войти через:  Facebook Google Twitter Vk Yandex Mail.ru

Dick Dale - Haji - таба, видео

Печатать
Просмотров: 237
-------------------------------------------------------------------------------
                        Haji (electric) - Dick Dale
-------------------------------------------------------------------------------
Tabbed by: Just_Chaz
Email: murdermug@hotmail.com

Tuning: Standard

Riff I                                                   Riff I(b)
e|----------------------------------------------------|  |--0--------------|
B|------0-1-0h1p0-----------------0-1-0h1p0-----------|  |--0--------------|
G|--1-2-----------2-1-2-2/4~--1-2-----------2-1-------|x2|--1--------------|x4
D|----------------------------------------------3-2~--|  |--2------2-------|
A|----------------------------------------------------|  |--2------2-------|
E|----------------------------------------------------|  |--0—-0-0-0--0-0--|

Riff I is played alone 2x then riff I(b) is played 4x.
Both riffs are then played on top of each other.

Riff II (chords)
    TP-16x  TP-12x                TP-16x  TP-12x                TP-down string
e|---------------------------------------------------------------------------|
B|--9-------10------12—-12--9~----9-------7-------10--10--9~-----------------|
G|--9-------10------12—-12--9~----9-------7-------10--10--9~-----------------|
D|--9-------10------12--12--9~----9-------7-------10--10--9~-----14\---------|
A|---------------------------------------------------------------------------|
E|---------------------------------------------------------------------------|

Play Riff I again twice then into riff III which is similar to riff II

Riff III
    TP.....................................................
e|--------------------------------------------------------------------0~--|
B|--------------------------------------------------------------------0~--|
G|--------------------------------------------------------------------9~--|
D|--------------------------------------------------------------------9~--|x2
A|--5h7-7-7-7-7-7-7-7-7-7-7-7-7-7-7-5-5-5-5-5-5-5-5-5-5-5-5--8--8--7~-7~--|
E|--------------------------------------------------------------------0~--|

Riff IIII (a)
e|---------------------------------------------------------------------0~--|
B|---------------------------------------------------------------------0~--|
G|--9-7h9p7-5h7p5-4h5p4~-9-7h9p7-5h7p5-4h5p4~-9-7h9p7-5h7p5-4h5p4-5-9~-9~--|x2
D|-------------------------------------------------------------------------|
A|-------------------------------------------------------------------------|
E|-------------------------------------------------------------------------|

Riff IIII (b)
e|-----------------------------------------------------------------|
B|-----------------------------------------------------------------|
G|--21-19h21p19-17h19p17-16h17p16~-21-19h21p19-17h19p17-16h17p16~--|
D|-----------------------------------------------------------------|
A|-----------------------------------------------------------------|
E|-----------------------------------------------------------------|

e|-----------------------------------------0~--|   |---0~--|
B|-----------------------------------------0~--|   |---0~--| hold for
G|--21-19h21p19-17h19p17-16h17p16~-17-21~-21~--|x2 |--21~--|  4 bars
D|---------------------------------------------|   |-------|
A|---------------------------------------------|   |-------|
E|---------------------------------------------|   |-------|

Bass Riff:
G|--7--7--7--7-8-8--7--7--7--7-8-8--|
D|--7--7--7--7-7-7--7--7--7--7-7-7--|x2 (Then on top of the solo)
A|--0--0--0--0------0--0--0--0------|
E|----------------------------------|

Guitar solo:
Trem pick most of solo, played very fast.
e|-------------------------------------15p12p10-15p12p10-15p12p10-15p12p10--|
B|------------------------8-10b12~-12~--------------------------------------|
G|----------7---------7-9---------------------------------------------------|
D|--7-7-7-9---7-7-7-9-------------------------------------------------------|
A|--------------------------------------------------------------------------|
E|--------------------------------------------------------------------------|


e|--15p12p10-15p12p10-15p12p10-15p12--------------12---------------15--------|
B|-----------------------------------15p12-15b17~----b17~-15-15b17----17-17--|
G|---------------------------------------------------------------------------|
D|---------------------------------------------------------------------------|
A|---------------------------------------------------------------------------|
E|---------------------------------------------------------------------------|

e|--15-------15-------15-------15-------15-------15-------15--------|
B|-----15b17----17-17----17-17----17-17----17-17----17-17----17-17--|
G|------------------------------------------------------------------|
D|------------------------------------------------------------------|
A|------------------------------------------------------------------|
E|------------------------------------------------------------------|
    TP............       TP......
e|--20b22----------19b20-19~-----------------------------------------------|
B|-------------------------------------------------------------------------|
G|------------------------------------7-------7-------7-------7-------7----|
D|--------------------------------7h9---9-7h9---9-7h9---9-7h9---9-7h9---9--|
A|-------------------------------------------------------------------------|
E|-------------------------------------------------------------------------|

e|----------------------------------------------------------------------|
B|------------------8~--------------------------------------------------|
G|------7-------7h9--------7-------7-------7-------7-------7-------7----|
D|--7h9---9-7h9--------7h9---9-7h9---9-7h9---9-7h9---9-7h9---9-7h9---9--|
A|----------------------------------------------------------------------|
E|----------------------------------------------------------------------|
                   TP.....................   TP..............
e|-------------------------------------------------------------|
B|----------10b12~-10b12~--10b12~--10b12~-12~------------------|
G|------7h9----------------------------------------------------|
D|--7h9----------------------------------------14\-------------|
A|-------------------------------------------------------------|
E|-------------------------------------------------------------|

| TP trem pick
| /  slide up
| \  slide down
| h  hammer-on
| p  pull-off
| ~  vibrato
| +  harmonic
| x  Mute note
| b  Bend note
| r  Release note
===============================================================================

Добавлено: 03.05.2012
Другие материалы по этой песне:
  • Аккорды и текст

Страница создана 03.05.2012
http://primanota.ru/dick-dale/haji-chords.htm
Привет, Гость.
Предлагаем пройти революционный курс по гитаре.
Подарок от PrimaNota.Ru, забирай!