PrimaNota.ru - самый крупный в мире бесплатный архив песенных текстов, аккордов, табулатур и нот


Diazepunk - Nid - аккорды и текст, таба, видео

Регистрация Запомнить меня
Войти через:  Facebook Google Twitter Vk Yandex Mail.ru

Diazepunk - Nid - аккорды и текст, таба, видео

Печатать
Просмотров: 143
Nid
Diazepunk
INTRO (como lo toca guty en vivo):

E|-
B|-3-3-3-3-3--5--3-3-3-3-3--5--1-1-1-1-1--3-5-3-----4-4-4-4-3-3-3-3-|
G|-4-4-4-4-4--5--4-4-4-4-4--5--3-3-3-3-3-------5-4--5-5-5-5-4-4-4-4-|
D|-5-5-5-5-5--5--3-3-3-3-3--5--2-2-2-2-2------------4-4-4-4-3-3-3-3-|
A|------------------------------------------------------------------|
E|------------------------------------------------------------------|

 G5(x3) C5-B5-E5


VERSO:
E5     D5        C5    G5     A5          C5        E5         D5           C5
sabias ke aveces yo    si tus ojos no veo brillar   busco una cerveza entre los
          G5              C5-B5-E5    D5   C5
recuerdos donde alguna vez       tu  y yo pasamos algun tiempo juntos

COro_:
E5     D5           C5     C*
NUNCA SABRE BIEN KE DECIR SIN TI NADA TIENE SENTIDO
E5       D5         C5              C*
SOLO ESTOY SI TU NO ESTAS......... ERES MI UNICA NECESIDAD!!!

VERSO:
E5        D5         C5      G5     A5           C5     E5           D5
Todo el tiempo ers especial y yo un tonto y nada mas.  Capaz solo de sonreir
C5                 G5                 C5-B5-E5     D5   C5            G5
si tu sonrisa logra como el sol brillar      tu  y yo dejando el tiempo pasar
 A5        G5   E5       D5
lo siento kisas no debi decirlo...   A|-5-3-2-3-| (punteo despues de esta parte)

CORO

SOLO:

e|-------------------------------------------10p-------10p----12-12-12-12-14-14-14-14p-|
B|-8-7-----8-7----8-7-8-10--8-7-8-10----12---------12----------------------------------|
G|-----7-------7-----------------------------------------------------------------------|
D|-------------------------------------------------------------------------------------|
Y AKABO!!!!

   C*
|------|
|--4---|
|--5---|
|--5---|
|--3---|
|------|

 
Добавлено: 12.06.2012
Другие материалы по этой песне:

Страница создана 25.03.2012
http://primanota.ru/diazepunk/nid-chords.htm
Привет, Гость.
Предлагаем пройти революционный курс по гитаре.
Подарок от PrimaNota.Ru, забирай!