PrimaNota.ru - самый крупный в мире бесплатный архив песенных текстов, аккордов, табулатур и нот


Diaura - Terrors - таба, бас-таба, видео

Регистрация Запомнить меня
Войти через:  Facebook Google Twitter Vk Yandex Mail.ru

Diaura - Terrors - таба, бас-таба, видео

Печатать
Просмотров: 259
Уроки эстрадного вокала в Санкт-Петербурге
-------------------------------------------------------------------------------
                             TERRORS - DIAURA
-------------------------------------------------------------------------------
Tabbed by: Rodriguez
E-mail: boutcheetah@tlen.pl

Tuning:Drop D
Check my profil for information about new tabs!
                               INTRO
                                dead note on 3rd fret
e|----------------------------------------------------------------------------|
B|-5-5-5-5-5-5-5-5-5-5--------------------------------------------------------|
G|-8-8-8-8-8-8-8-8-8-8--------------------------- ----------------------------|
D|-------------------------------x-x-x-x-x-x-x-x------------------------------|
A|-------------------------------x-x-x-x-x-x-x-x------------------------------|
D|-------------------------------x-x-x-x-x-x-x-x------------------------------|
                           PM------                             PM------
e||--------------------------------------------------------------------------||
B||--------------------------------------------------------------------------||
G||--------------------------------------------------------------------------||
D||--------------------------------------------------------------------------||
A||--------------------------------------------------------------------------||
D||-3p0-0-0--3p0-0-0--3p0-0-0-6-5-0-3p0-3p0-0-0--3p0-0-0--3p0-0-0-6-5-0------|| x2
                                  RIFF VERSE (verse 1)
e||--------------------------------------------------------------------------||
B||--------------------------------------------------------------------------||
G||--------------------------------------------------------------------------||
D||--------------------------------------------------------------------------||
A||--------------------------------------------------------------------------||
D||-3p0--0--0-0--0-0---0-0--0-0--3--0-0----6-5-0-3p0-------------------------|| x16
                              RIFF PRE-CHORUS
e|----------------------------------------------------------------------------|
B|----------------------------------------------------------------------------|
G|----------------------------------------------------------------------------|
D|----------------------------------------------------------------------------|
A|-1------------------------1---------------------3---------------------3-----|
D|-1------------------------1---------------------3---------------------3-----|
                                  CHORUS
e||---------------------------------------------------------------------------|
B||---------------------------------------------------------------------------|
G||-----------------------------------3--3--3--3-3-3-3------------------------|
D||-----------------------------------3--1--1--3-3-3-3------------------------|
A||-1--1--1--1-1-1-1-3--3--3--3-3-3-3-1--1--1--1-1-1-1-0--0--0--0-0-0-0-------|
D||-1--1--1--1-1-1-1-3--3--3--3-3-3-3------------------0--0--0--0-0-0-0-------|
                                     PM-----  PM-----  PM-----  PM----- 
e|---------------------------------------------------------------------------||
B|---------------------------------------------------------------------------||
G|---------------------------------------------------------------------------||
D|---------------------------------------------------------------------------||
A|-1--1--1--1-1-1-1-3--3--3--3-3-3-3-----------------------------------------||
D|-1--1--1--1-1-1-1-3--3--3--3-3-3-3---5-3-3-5--5-3-3-5--5-3-3-5--5-3-3-5----|| x2
                   PM--------    BRIGHT
e||--------------------------------------------------------------------------||
B||--------------------------------------------------------------------------||
G||--------------------------------------------------------------------------||
D||--------------------------------------------------------------------------||
A||--------------------------------------------------------------------------||
E||-3p0---3p0---3p0---6-5-0-3p0----------------------------------------------|| x2

                                 BRIGHT
e||--------------------------------------------------------------------------||
B||--------------------------------------------------------------------------||
G||--------------------------------------------------------------------------||
D||--------------------------------------------------------------------------||
A||------------------x-x-x-x-x-x---------------------------------------------||
E||-3p0---3p0---3p0--x-x-x-x-x-x---------------------------------------------||

                                   RIFF VERSE(verse 2)
e||--------------------------------------------------------------------------||
B||--------------------------------------------------------------------------||
G||--------------------------------------------------------------------------||
D||--------------------------------------------------------------------------||
A||--------------------------------------------------------------------------||
D||-3p0--0--0-0--0-0---0-0--0-0--3--0-0---6-5-0-3p0-------------------------|| x4

                              RIFF PRE-CHORUS
e|----------------------------------------------------------------------------|
B|----------------------------------------------------------------------------|
G|----------------------------------------------------------------------------|
D|----------------------------------------------------------------------------|
A|-1------------------------1---------------------3----------3--x-x-x-x-x-x---|
D|-1------------------------1---------------------3----------3--x-x-x-x-x-x---|

e||---------------------------------------------------------------------------|
B||---------------------------------------------------------------------------|
G||-----------------------------------3--3--3--3-3-3-3------------------------|
D||-----------------------------------3--1--1--3-3-3-3------------------------|
A||-1--1--1--1-1-1-1-3--3--3--3-3-3-3-1--1--1--1-1-1-1-0--0--0--0-0-0-0-------|
D||-1--1--1--1-1-1-1-3--3--3--3-3-3-3------------------0--0--0--0-0-0-0-------|
                                     PM-----  PM-----  PM-----  PM----- 
e|---------------------------------------------------------------------------||
B|---------------------------------------------------------------------------||
G|---------------------------------------------------------------------------||
D|---------------------------------------------------------------------------||
A|-1--1--1--1-1-1-1-3--3--3--3-3-3-3-----------------------------------------||
D|-1--1--1--1-1-1-1-3--3--3--3-3-3-3---5-3-3-5--5-3-3-5--5-3-3-5--5-3-3-5----|| x2
                                  RIFF VERSE(verse 3)
e||---------------------------------------------------------------------------|
B||---------------------------------------------------------------------------|
G||---------------------------------------------------------------------------|
D||---------------------------------------------------------------------------|
A||-6--6--6-6-6-6--6--6--6-6-6-6--10--10--10-10-10-10--10--10--10-10-10-10----|
D||-6--6--6-6-6-6--6--6--6-6-6-6--10--10--10-10-10-10--10--10--10-10-10-10----|

e|---------------------------------------------------------------------------||
B|---------------------------------------------------------------------------||
G|---------------------------------------------------------------------------||
D|---------------------------------------------------------------------------||
A|-3--3--3-3-3-3--3--3--3-3-3-3--8--8--8-8-8-8--9--9--9-9-9-9----------------||
D|-3--3--3-3-3-3--3--3--3-3-3-3--8--8--8-8-8-8--9--9--9-9-9-9----------------|| x2

                   PM--------    BRIGHT
e||--------------------------------------------------------------------------||
B||--------------------------------------------------------------------------||
G||--------------------------------------------------------------------------||
D||--------------------------------------------------------------------------||
A||--------------------------------------------------------------------------||
E||-3p0---3p0---3p0---6-5-0-3p0----------------------------------------------|| x2

                                BRIGHT
e|----------------------------------------------------------------------------|
B|----------------------------------------------------------------------------|
G|----------------------------------------------------------------------------|
D|----------------------------------------------------------------------------|
A|------------------x-x-x-x-x-x-----------------------------------------------|
E|-3p0---3p0---3p0--x-x-x-x-x-x-----------------------------------------------|
                              BRIGHT Ver. 2

       PM-     PM-     PM------
e|----------------------------------------------------------------------------|
B|----------------------------------------------------------------------------|
G|----------------------------------------------------------------------------|
D|----------------------------------------------------------------------------|
A|----------------------------------------------------------------------------|
D|-3p0---0-3p0---0-3p0--6-5-0-3p0-0-------------------------------------------| x3
                                    CHORUS
e|----------------------------------------------------------------------------|
B|----------------------------------------------------------------------------|
G|------------------------------------3--3--3--3-3-3-3------------------------|
D|------------------------------------3--1--1--3-3-3-3------------------------|
A|--1--1--1--1-1-1-1-3--3--3--3-3-3-3-1--1--1--1-1-1-1-0--0--0--0-0-0-0-------|
D|--1--1--1--1-1-1-1-3--3--3--3-3-3-3------------------0--0--0--0-0-0-0-------|
                                     PM-----  PM-----  PM-----  PM----- 
e|----------------------------------------------------------------------------|
B|----------------------------------------------------------------------------|
G|----------------------------------------------------------------------------|
D|----------------------------------------------------------------------------|
A|-1--1--1--1-1-1-1-3--3--3--3-3-3-3------------------------------------------|
D|-1--1--1--1-1-1-1-3--3--3--3-3-3-3---5-3-3-5--5-3-3-5--5-3-3-5--5-3-3-5-----|

e||---------------------------------------------------------------------------|
B||---------------------------------------------------------------------------|
G||-----------------------------------3--3--3--3-3-3-3------------------------|
D||-----------------------------------3--1--1--3-3-3-3------------------------|
A||-1--1--1--1-1-1-1-3--3--3--3-3-3-3-1--1--1--1-1-1-1-0--0--0--0-0-0-0-------|
D||-1--1--1--1-1-1-1-3--3--3--3-3-3-3------------------0--0--0--0-0-0-0-------|
                                     PM-----  PM-----  PM-----  PM----- 
e|----------------------------------------------------------------------------|
B|----------------------------------------------------------------------------|
G|----------------------------------------------------------------------------|
D|----------------------------------------------------------------------------|
A|-1--1--1--1-1-1-1-3--3--3--3-3-3-3------------------------------------------|
D|-1--1--1--1-1-1-1-3--3--3--3-3-3-3---5-3-3-5--5-3-3-5--5-3-3-5--5-3-3-5-5---|

e||--------------------------------------------------------------------------||
B||--------------------------------------------------------------------------||
G||--------------------------------------------------------------------------||
D||--------------------------------------------------------------------------||
A||--------------------------------------------------------------------------||
D||-3p0-0-0--3p0-0-0--3p0-0-0-6-5-0-3p0-3p0-0-0--3p0-0-0--3p0-0-0-6-5-0------|| x8
    dead note on 10th fret      OUTRO
e|----------------------------------------------------------------------------|
B|----------------------------------------------------------------------------|
G|----------------------------------------------------------------------------|
D|----------------------------------------------------------------------------|
A|-x-x-x-x-x-x-x-x-x-x--0-----------------------------------------------------|
D|-x-x-x-x-x-x-x-x-x-x--0-----------------------------------------------------|

************************************
| x   dead note
| p   pull-off
| ||  this part you repreat

************************************
Добавлено: 12.12.2015
Другие материалы по этой песне:
  • Аккорды и текст

Страница создана 08.08.2015
http://primanota.ru/diaura/terrors-chords.htm
Привет, Гость.
Предлагаем пройти революционный курс по гитаре.
Подарок от PrimaNota.Ru, забирай!