PrimaNota.ru - самый крупный в мире бесплатный архив песенных текстов, аккордов, табулатур и нот


Diaura - Lost November - таба, видео

Регистрация Запомнить меня
Войти через:  Facebook Google Twitter Vk Yandex Mail.ru

Diaura - Lost November - таба, видео

Печатать
Просмотров: 391
Уроки эстрадного вокала в Санкт-Петербурге
-------------------------------------------------------------------------------
                             Lost November Solo Tab - Diaura
-------------------------------------------------------------------------------
Tabbed by: D.M
E-mail: dominicisme@yahoo.co.uk

Tuning: C G C F A D

D|-------------------------------10------------------------------------------|
A|-3/5--7-8-7--7/12~--12\10--10------10--8-7~--7-8-7-3~----------------------|
F|---------------------------------------------------------------------------|
C|---------------------------------------------------------------------------|
G|---------------------------------------------------------------------------|
C|---------------------------------------------------------------------------|

D|------------------------------------------14-15-14-------------------------|
A|-3/5--7-8-7--7/12~--12\10--10--10/15--12------------12~--------------------|
F|---------------------------------------------------------------------------|
C|---------------------------------------------------------------------------|
G|---------------------------------------------------------------------------|
C|---------------------------------------------------------------------------|

D|--------14-15-----14-15-----------14-15-17-15-14---------------------------|
A|-10/12--------12--------12--12/15-----------------15-----------------------|
F|---------------------------------------------------------------------------|
C|---------------------------------------------------------------------------¦                         
G|---------------------------------------------------------------------------|
C|---------------------------------------------------------------------------|

D|-------15-17-19-17-15-17--17/20--19-17-15-17-15-14-------------------------|
A|-15/17---------------------------------------------------------------------|
F|---------------------------------------------------------------------------|
C|---------------------------------------------------------------------------|
G|---------------------------------------------------------------------------|
C|---------------------------------------------------------------------------|

D|-12~--12\10--10~--10/14--12~---0-0-0-0-2-2-2-2-3-3-3-3-7-7-7-7----12~------|
A|---------------------------------------------------------------------------|
F|---------------------------------------------------------------------------|
C|---------------------------------------------------------------------------|
G|---------------------------------------------------------------------------|
C|---------------------------------------------------------------------------|


************************************

| /   slide up
| \   slide down
| h   hammer-on
| p   pull-off
| ~   vibrato
| +   harmonic
| x   Mute note
| b   Bend
| pb  Pre-bend
| br  Bend release
| pbr Pre-bend release
| brb Bend release bend

************************************
Добавлено: 09.08.2014
Другие материалы по этой песне:
  • Аккорды и текст

Страница создана 09.08.2014
http://primanota.ru/diaura/lost-november-chords.htm
Привет, Гость.
Предлагаем пройти революционный курс по гитаре.
Подарок от PrimaNota.Ru, забирай!