PrimaNota.ru - самый крупный в мире бесплатный архив песенных текстов, аккордов, табулатур и нот


Diaura - Code 0 - бас-таба, видео

Регистрация Запомнить меня
Войти через:  Facebook Google Twitter Vk Yandex Mail.ru

Diaura - Code 0 - бас-таба, видео

Печатать
Просмотров: 59
00:09
                           Repeat 3x
G|-------------------------------------|  G|---------------------------------------|
D|-------------------------------------|  D|---------------------------------------|
A|-------------------------------------|  A|---------------------------------------|
E|-6h7777-8h7777-----------------------|  E|-6h7777-8h77---------------------------|

                          Repeat 3x
G|-------------------------------------|  G|---------------------------------------|
D|-------------------------------------|  D|---------------------------------------|
A|-------------------------------------|  A|---------------------------------------|
E|-6h7777-8h7777-----------------------|  E|-6h7777-8h77---------------------------|

00:28
                          Repeat 8x
G|---------------------------------------|
D|---------------------------------------|
A|---------------------------------------|
E|-4/6666h7666---------------------------|

00:44

Repeat 3x
G|---------------------------------------|
D|---------------------------------------|
A|---------------------------------------|
E|-6h7777-8h7777-------------------------|

00:51

    Repeat 8x
G|---------------------------------------|
D|---------------------------------------|
A|---------------------------------------|
E|-4/6666h7666---------------------------|

01:07
                                                                             Repeat 2x
G|---------------------------------------------------------------------|
D|---------------------------------------------------------------------|
A|-----------------------------------3-3-3-3-3-3-3-3--1-1-1-1-1-1-1-1--|
E|-5-5-5-5-5-5-5-5--3-3-3-3-3-3-3-3------------------------------------|

01:23
                          Repeat 7x
G|---------------------------------------|
D|---------------------------------------|
A|---------------------------------------|
E|-1--11--1--1---------------------------|

01:38

Repeat 3x
G|---------------------------------------|
D|---------------------------------------|
A|---------------------------------------|
E|-6h7777-8h7777-------------------------|

01:53

                         Repeat 4x
G|---------------------------------------|
D|---------------------------------------|
A|---------------------------------------|
E|-4/6666h7666---------------------------|

02:01

                                                                             Repeat 2x
G|---------------------------------------------------------------------|
D|---------------------------------------------------------------------|
A|-----------------------------------3-3-3-3-3-3-3-3--1-1-1-1-1-1-1-1--|
E|-5-5-5-5-5-5-5-5--3-3-3-3-3-3-3-3------------------------------------|

G|---------------------------------------------------------------------|
D||--------------------------------------------------------------------|
A------------------------------------3-3-3-3-3-3-3-3--1-1-1-1-1-1-1-1--|
E|-3-3-3-3-3-3-3-3--7-7-7-7-7-7-7-7------------------------------------|

G|---------------------------------------------------------------------|
D||--------------------------------------------------------------------|
A----------------------------------------------------------------------|
E|-9-9-9-9-9-9-9-9--5-5-5-5-5-5-5-5--3-3-3-3-3-3-3-3--1-1-1-1-1-1-1-1--|

02:32

                           Repeat 8x
G|---------------------------------------|
D|---------------------------------------|
A|---------------------------------------|
E|-1--11--1--1---------------------------|

02:47

                          Repeat 4x
G|---------------------------------------|
D|---------------------------------------|
A|---------------------------------------|
E|-6h7777-8h7777-------------------------|

03:11

                                                                            Repeat 2x
G|---------------------------------------------------------------------|
D|---------------------------------------------------------------------|
A|-----------------------------------3-3-3-3-3-3-3-3--1-1-1-1-1-1-1-1--|
E|-5-5-5-5-5-5-5-5--3-3-3-3-3-3-3-3------------------------------------|

G|---------------------------------------------------------------------|
D||--------------------------------------------------------------------|
A------------------------------------3-3-3-3-3-3-3-3--1-1-1-1-1-1-1-1--|
E|-3-3-3-3-3-3-3-3--7-7-7-7-7-7-7-7------------------------------------|

G|---------------------------------------------------------------------|
D||--------------------------------------------------------------------|
A----------------------------------------------------------------------|
E|-9-9-9-9-9-9-9-9--5-5-5-5-5-5-5-5--3-3-3-3-3-3-3-3--1-1-1-1-1-1-1-1--|

03:42

 Repeat 8x
G|---------------------------------------|
D|---------------------------------------|
A|---------------------------------------|
E|-1--11--1--1---------------------------|
Добавлено: 08.08.2015
Вам также может быть интересно:
Другие материалы по этой песне:
  • Аккорды и текст

Страница создана 08.08.2015
http://primanota.ru/diaura/code-0-chords.htm
Привет, Гость.
Предлагаем пройти революционный курс по гитаре.
Подарок от PrimaNota.Ru, забирай!