PrimaNota.ru - самый крупный в мире бесплатный архив песенных текстов, аккордов, табулатур и нот


Diamond Head - Call Me - текст песни, таба, видео

Регистрация Запомнить меня
Войти через:  Facebook Google Twitter Vk Yandex Mail.ru

Diamond Head - Call Me - текст песни, таба, видео

Печатать
Просмотров: 203
Уроки эстрадного вокала в Санкт-Петербурге
DIAMOND HEAD - Call Me
From album Borrowed Time (1982)

Legend:
~ - vibrate
b - bend (full)
a - harmonics
h - hammer on
p - pull off
T - tapping

RIFF 1 (3x)
e|--------------|--------------|--------------|--------------|
B|-10-----------|-10-----------|-10-----------|-10-----------|
G|--9-----------|--8-----------|--7-----------|--6-----------|
D|--7-----------|--7-----------|--7-----------|--7-----------|
A|--------------|--------------|--------------|--------------|
E|--------------|--------------|--------------|--------------|

RIFF 2 (2x)
e|-----------------|-----------------|-----------------|-----------------|
B|-10--------------|-10--------------|-10--------------|-10--------------|
G|--9--------------|--8--------------|--7--------------|--6--------------|
D|--7--7-7-7-7-7-7-|--7--7-7-7-7-7-7-|--7--7-7-7-7-7-7-|--7--7-7-7-7-7-7-|
A|-----------------|-----------------|-----------------|-----------------|
E|-----------------|-----------------|-----------------|-----------------|

RIFF 3 (2x)
e|------------------------------------------|
B|------------------------------------------|
G|------------------------------------------|
D|-10--10--10--10--10-----------10--9--7----|
A|--8---8---8---8---7-----7--9------------7-|
E|------------------------------------------|

RIFF 4
e|---------------------|
B|---------------------|
G|---------------------|
D|-7-----2-----7-----9-|
A|-5-----0-----5-----7-|
E|---------------------|

RIFF 5
e|--------------------------------------|---------------|
B|--------------------------------------|---------------|
G|--------------------------------------|---------------|
D|--------------------------------3--5~-|---------------|
A|-7-----3-----5-----3~--0--3--5--------|-7-----3-----5-|
E|-5-----1-----3------------------------|-5-----1-----3-|

RIFF 1 (3x)
e|--------------|--------------|--------------|--------------|
B|-10-----------|-10-----------|-10-----------|-10-----------|
G|--9-----------|--8-----------|--7-----------|--6-----------|
D|--7-----------|--7-----------|--7-----------|--7-----------|
A|--------------|--------------|--------------|--------------|
E|--------------|--------------|--------------|--------------|

RIFF 3 (2x)
e|------------------------------------------|
B|------------------------------------------|
G|------------------------------------------|
D|-10--10--10--10--10-----------10--9--7----|
A|--8---8---8---8---7-----7--9------------7-|
E|------------------------------------------|

RIFF 4
e|---------------------|
B|---------------------|
G|---------------------|
D|-7-----2-----7-----9-|
A|-5-----0-----5-----7-|
E|---------------------|

RIFF 5 (2x)
e|--------------------------------------|---------------|
B|--------------------------------------|---------------|
G|--------------------------------------|---------------|
D|--------------------------------3--5~-|---------------|
A|-7-----3-----5-----3~--0--3--5--------|-7-----3-----5-|
E|-5-----1-----3------------------------|-5-----1-----3-|

SOLO
e|-------------------------------------------------------------------------------------|
B|-----6-5---------5h8p5------5h8p5------5h8p5------5h8p5------5h8p5------5h8p5--------|
G|-7b------7-5--7b-------5-7b-------5-7b-------5-7b-------5-7b-------5-7b-------5-7b7a-|
D|-------------------------------------------------------------------------------------|
A|-------------------------------------------------------------------------------------|
E|-------------------------------------------------------------------------------------|

e|------------------------------------------5---5-|
B|-----6-5---------5---5h6p5---5-6h8p6-5----------|
G|-7b------7-5---7---7-------7-----------7--------|
D|------------------------------------------------|
A|------------------------------------------------|
E|------------------------------------------------|

e|-12T8p5-12T8p5-12T8p5-12T---13T8p5-13T8p5-13T8p5-13T-|
B|-----------------------------------------------------|
G|-----------------------------------------------------|
D|-----------------------------------------------------|
A|-----------------------------------------------------|
E|-----------------------------------------------------|

e|-13T10p7-13T10p7-13T10p7-13T---15T10p7-15T10p7-15T10p7-15T---15b-|
B|-----------------------------------------------------------------|
G|-----------------------------------------------------------------|
D|-----------------------------------------------------------------|
A|-----------------------------------------------------------------|
E|-----------------------------------------------------------------|

RIFF 3 (2x)
e|------------------------------------------|
B|------------------------------------------|
G|------------------------------------------|
D|-10--10--10--10--10-----------10--9--7----|
A|--8---8---8---8---7-----7--9------------7-|
E|------------------------------------------|

RIFF 4
e|---------------------|
B|---------------------|
G|---------------------|
D|-7-----2-----7-----9-|
A|-5-----0-----5-----7-|
E|---------------------|

RIFF 5 (3x... fadeaway)
e|--------------------------------------|---------------|
B|--------------------------------------|---------------|
G|--------------------------------------|---------------|
D|--------------------------------3--5~-|---------------|
A|-7-----3-----5-----3~--0--3--5--------|-7-----3-----5-|
E|-5-----1-----3------------------------|-5-----1-----3-|
Добавлено: 11.03.2012
Другие материалы по этой песне:
  • Аккорды и текст

Страница создана 11.03.2012
http://primanota.ru/diamond-head/call-me-chords.htm
Привет, Гость.
Предлагаем пройти революционный курс по гитаре.
Подарок от PrimaNota.Ru, забирай!