PrimaNota.ru - самый крупный в мире бесплатный архив песенных текстов, аккордов, табулатур и нот


Diamante Eléctrico - Todo Va A Arder - таба, видео

Регистрация Запомнить меня
Войти через:  Facebook Google Twitter Vk Yandex Mail.ru

Diamante Eléctrico - Todo Va A Arder - таба, видео

Печатать
Просмотров: 76
Tabbed by: algove96
E-mail: algove96@hotmail.com

Tuning: Standard

Canción nominada al Grammy Latino como mejor canción rock. Album "B" (2015)
Latin Grammy nominated for "best rock song". B (2015)


                 E7*                          E7          B             C#             G              E  
e|------0-------0------0-------0---|      e|--7--|    e|--7--|      e|--9--|       e|--3--|       e|--5--| 
B|--------3-------3------3-------3-|      B|--9--|    B|--7--|      B|--9--|       B|--3--|       B|--5--|      
G|---------------------------------|      G|--7--|    G|--8--|      G|--10-|       G|--4--|       G|--6--|     
D|---------------------------------|      D|--9--|    D|--9--|      D|--11-|       D|--5--|       D|--7--|      
A|---2-----------------------------|      A|--7--|    A|--9--|      A|--11-|       A|--5--|       A|--7--|      
E|-0---------0-------0-------0-----|      E|-----|    E|--7--|      E|--9--|       E|--3--|       E|--5--|      



Intro: E7


            E7
Hagámonos mierda
            B
Resistirnos al destino
            C#              E7
Bajemos al abismo, te quiebras
      B
Somos del mismo cemento
     C#
Una causa y un efecto

E7*
Ahora mátame si quieres
G                E
No hay donde correr
E7*                           G
Estoy perdido he decidido que
               E
Entre tu y yo todo va a arder

E7
                                             _
            E7                                |
Hagámonos mierda                              |
            B                                 |
Acumulemos cicatrices                         |
            C#                   E7           |--> Acá el ritmo es corchea-negra y NO negra-negra como antes
y polvo entre las luces, me lleva             |    Rithm in here is quaver-crotchet INSTEAD of crotchet-crotchet
             B                                |
Si me veo en tu reflejo                       |
       C#                                     |
Comparteme tu infierno                       _|


E7*
Ahora mátame si quieres
G                E
No hay donde correr
E7*                           G
Estoy perdido he decidido que
               E
Entre tu y yo todo va a arder


SOLO
El solo está en la escala de E Menor Pentatónica (E Pentatonic Minor Scale). Estoy casi 100% seguro del solo 
pero si a alguien no le parece puede improvisar sobre la escala  

e|-----------------------------------------------------------------------------|
B|-----------------------------------------------------------------------------|
G|------------------------------------7-----------------7----------------------|
D|------5-7-5-7b---5-------------7/9----9-7-7-5----7/9----9-7-7-5---/7--5------|  |7b| se puede tocar |7/8\7|
A|--5h7--------------7\------5h7-----------------7----------------7-------7\---|
E|-----------------------------------------------------------------------------|

e|-----------------------------------------------------------------------------|
B|--------------------------------------------8b---------------8-8-------------|
G|-----------7-----------------7-9p7h9--7-9-7-----7-9---7-9-7------7-9--7-9-7--|
D|------7/9----9-7-7-5----7/9--------------------------------------------------|
A|--5h7-----------------7------------------------------------------------------|
E|-----------------------------------------------------------------------------|

e|-----------------------------------------------------------------------------|
B|--8-10-10pb-10pb---10pbr8-8--10p8-------8brb------8-----8-----8/10-8---------|    |10b| se puede tocar |12|
G|-------------------------9--------9p7h9------9p7-9--7-9---7-9-------7-9-9h7--|    |10pbr8| como |12p10p8| 
D|------------------------------------------------9--------------------------9-|    |8brb| como |8/9\8|
A|-----------------------------------------------------------------------------|
E|-----------------------------------------------------------------------------|

e|-----------------------------------------------------------------------------|
B|-----------------------------------------------------------------------------|
G|-7h9---7--7/9-----7-----------------7----------------------------------------|
D|----9---7-----7h9---9-7---------7-9---9--9p7--------7-9p7--------------------|
A|------------------------10-7-10-------------10p7-10-------10p7-10------------|
E|-----------------------------------------------------------------------------|

E7*
Ahora mátame si quieres
G                E
No hay donde correr
E7*                           G
Estoy perdido he decidido que
               E
Entre tu y yo todo va a arder

E7*
Ahora mátame si quieres
G                E
No hay donde correr
E7*                           G
Estoy perdido he decidido que
               E
Entre tu y yo todo va a arder

E7




Cualquier comentario es bienvenido :)
Any comment is welcomed 

************************************

| /   slide up
| \   slide down
| h   hammer-on
| p   pull-off
| ~   vibrato
| +   harmonic
| x   Mute note
| b   Bend
| pb  Pre-bend
| br  Bend release
| pbr Pre-bend release
| brb Bend release bend

************************************
Добавлено: 12.06.2016
Другие материалы по этой песне:
  • Аккорды и текст

Страница создана 12.06.2016
http://primanota.ru/diamante-electrico/todo-va-a-arder-chords.htm
Привет, Гость.
Предлагаем пройти революционный курс по гитаре.
Подарок от PrimaNota.Ru, забирай!