PrimaNota.ru - самый крупный в мире бесплатный архив песенных текстов, аккордов, табулатур и нот


Diamante Eléctrico - Las Horas - таба, видео

Регистрация Запомнить меня
Войти через:  Facebook Google Twitter Vk Yandex Mail.ru

Diamante Eléctrico - Las Horas - таба, видео

Печатать
Просмотров: 44
 


-------------------------------------------------------------------------------
Tabbed by: algove96
E-mail: algove96@hotmail.com
Tuning: Standard

Sexta canción del álbum B, ganador del Grammy Latino 2015 como Mejor Album Rock, de esta banda colombiana de 
rocanrol. Disfruten y cualquier comentario es bienvenido!
Sixth song of B, Latin Grammy awarded as Best Rock Album, from this colombian rock n roll band. Enjoy and every 
comment is welcomed!
Larga vida al Diamante hijueputa

      C*              Am7             G              A              C            D7
e|-----3----|      e|--5--|       e|--3--|       e|--5--|       e|--3--|      e|--5--|
B|-------5--|      B|--5--|       B|--3--|       B|--5--|       B|--5--|      B|--7--|
G|----------|      G|--5--|       G|--4--|       G|--6--|       G|--5--|      G|--5--|
D|---5------|      D|--5--|       D|--5--|       D|--7--|       D|--5--|      D|--7--|
A|-3--------|      A|--7--|       A|--5--|       A|--7--|       A|--3--|      A|--5--|
E|----------|      E|--5--|       E|--3--|       E|--5--|       E|-----|      E|-----|




Intro
e|---------------------------------------------------------------------------|
B|---------------------------------------------------------------------------|
G|---------------------------------------------------------------------------|
D|---5------------0-2-------5------------0-2-------7-----------0-2-----------|
A|---5--------0-2-----------5--------0-2-----------7-------0-2---------------|
E|---3----0-3---------------3----0-3---------------5----0-3------------------|

e|---------------------------------------------------------------------------|
B|---------------------------------------------------------------------------|
G|---------------------------------------------------------------------------|
D|---7-----------0-2---------------------------------------------------------|
A|---7-------0-2-------------------------------------------------------------|
E|---5----0-3----------------------------------------------------------------|

G                                        Am7
Creí siempre que era fuerte y como te quiero
G                                 Am7
Yo que siempre tuve fe en la soledad
G                                   Am7
Y ahora que ya te perdí me mata la pena
G                                 Am7
Soy experto en el dolor y fragilidad


C*                              C    G
Y el viento me trae este puto sentimiento
C*                              D7
Y en la puerta del adiós te pido perdón, mi amor


G            A             C           G
No te pude ver si te perdí en el laberinto
           G                A
Las horas, ya aprendí a perder
         C          G
Tomamos caminos distintos

G                                      Am7
El que desenfundó primero es el que dispara
G                                 Am7
Yo que siempre tuve fe en la soledad
G                                      Am7
Y ahora que rezas por mí, se quema la vela
G                                   Am7
El exceso es al camino la única verdad


C*                              C    G
Fuimos polvo y sombras y hoy dónde quedaste?
C*                                         D7
Ya vimos nuestro imperio arder y este corazón, mi amor


G            A             C           G
No te pude ver si te perdí en el laberinto
           G                A
Las horas, ya aprendí a perder
         C          G
Tomamos caminos distintos


SOLO
e|-----------------------------------------------12-12--12-12--------------------------|
B|-----------------------------------------------13-13--13-13--------------------------|
G|12--------12---------12/14---12---14-12--------12-12--12-12----12--1212-12-12-12-----|
D|----14-12---14-12-------------- 14-----14--------------------------------------------|
A|-------------------------------------------------------------------------------------|
E|-------------------------------------------------------------------------------------|

e|------------------------------------------------12-12--12-12------------------12----|
B|------------------------------------------------13-13--13-13------------------12----|
G|/12--------12---------12/14---12---14-12--------12-12--12-12----12--12---12---12----|
D|-----14-12---14-12-------------- 14-----14----------------------------14---14-------|
A|------------------------------------------------------------------------------------|
E|------------------------------------------------------------------------------------|



G            A             C           G
No te pude ver si te perdí en el laberinto
           G                A
Las horas, ya aprendí a perder
         C          G
Tomamos caminos distintos


G            A             C           G
No te pude ver si te perdí en el laberinto
           G                A
Las horas, ya aprendí a perder
         C          G
Tomamos caminos distintos


************************************

Esta versión fue corregida por la propia banda el 21 de enero de 2016 a través de su página en Facebook

Добавлено: 10.06.2016
Вам также может быть интересно:
Другие материалы по этой песне:
  • Аккорды и текст

Страница создана 10.06.2016
http://primanota.ru/diamante-electrico/las-horas-chords.htm
Привет, Гость.
Предлагаем пройти революционный курс по гитаре.
Подарок от PrimaNota.Ru, забирай!