PrimaNota.ru - самый крупный в мире бесплатный архив песенных текстов, аккордов, табулатур и нот


Diamante Eléctrico - Kamikaze - таба, видео

Регистрация Запомнить меня
Войти через:  Facebook Google Twitter Vk Yandex Mail.ru

Diamante Eléctrico - Kamikaze - таба, видео

Печатать
Просмотров: 97
Уроки эстрадного вокала в Санкт-Петербурге
Tabbed by: algove96
E-mail: algove96@hotmail.com
Tuning: Standard

Primera canción del álbum B, ganador del Grammy Latino 2015 como Mejor Album Rock, de esta banda de Bogotá, 
Colombia. Todo comentario es bienvenido!
First song of B, Latin Grammy awarded as Best Rock Album, from this band created in Bogota, Colombia. Every 
comment is welcomed!
Larga vida al Diamante hijueputa

(Nota: En los VERSOS, el primer rasgueo de 1 se toca 0h1)
(Note: In the VERSES, the first strum of 1 is played 0h1)

Verse 1: Estar al borde se siente bien...
e|---------------------------------------------------------------------------|
B|---------------------------------------------------------------------------|
G|---------------------------------------------------------------------------| 
D|---------------------------------------------------------------------------|  
A|---------------------------------------------------------------------------|  
E|----3(x64)--------1(x16)--------3(x48)--------1(x16)--------3(x16)---------| 
                                                                                

Riff: (Tocar dos veces. Play twice)
e|---------------------------------------------------------------------------|
B|---------------------------------------------------------------------------|
G|---------------------------------------------------------------------------|
D|---------------------------------------------------------------------------|
A|---------------------------------------------------------------------------|
E|-----3(x6)--6-5-4-3(x6)--3/8-8-8--------3(x6)--6-5-4-3(x6)--0-1-2----------|


Verse 2: Contracorriente vuelvo a flotar...
e|---------------------------------------------------------------------------|
B|---------------------------------------------------------------------------|
G|---------------------------------------------------------------------------|
D|---------------------------------------------------------------------------|
A|---------------------------------------------------------------------------|
E|---3(x32)--------1(x16)--------3(x16)--------------------------------------|

Chorus I: 
e|----6---6-6-6-6----8----8--8--8--8-----6---6-6-6-6----8----8--8--8--8-------------------|
B|----6---6-6-6-6----8----8--8--8--8-----6---6-6-6-6----8----8--8--8--8-------------------|
G|----7---7-7-7-7----9----9--9--9--9-----7---7-7-7-7----9----9--9--9--9-------------------|
D|----8---8-8-8-8----10---10-10-10-10----8---8-8-8-8----10---10-10-10-10------------------|
A|----8---8-8-8-8----10---10-10-10-10----8---8-8-8-8----10---10-10-10-10------------------|
E|----6---6-6-6-6----8----8--8--8--8-----6---6-6-6-6----8----8--8--8--8--------3(x16)-----|
             Te   deseo      lo        peor   Me     deseas       lo         peor

Verse 2 (again): Estar al borde se siente bien...
e|---------------------------------------------------------------------------|
B|---------------------------------------------------------------------------|
G|---------------------------------------------------------------------------|
D|---------------------------------------------------------------------------|
A|---------------------------------------------------------------------------|
E|---3(x32)--------1(x16)--------3(x16)--------------------------------------|


Chorus II: 
e|----6---6-6-6-6----8----8--8--8--8-----6---6-6-6-6----8----8--8--8--8-------------------|
B|----6---6-6-6-6----8----8--8--8--8-----6---6-6-6-6----8----8--8--8--8-------------------|
G|----7---7-7-7-7----9----9--9--9--9-----7---7-7-7-7----9----9--9--9--9-------------------|
D|----8---8-8-8-8----10---10-10-10-10----8---8-8-8-8----10---10-10-10-10------------------|
A|----8---8-8-8-8----10---10-10-10-10----8---8-8-8-8----10---10-10-10-10------------------|
E|----6---6-6-6-6----8----8--8--8--8-----6---6-6-6-6----8----8--8--8--8--------3(x32)-----|
             Te   deseo      lo        peor   Me     deseas       lo         peor


Solo:
e|---------------------------------------------------------------------------|
B|---------------------------------------------------------------------------|
G|---------------------------------------------------------------------------|
D|---------------------------------------------------------------------------|
A|---------------------------------------------------------------------------|
E|--10-10-9-8---8-7-6---6-5-3---3-6------10-10-9-8---8-7-6---6-5-3---3-6-----|

e|---------------------------------------------------------------------------|
B|---------------------------------------------------------------------------|
G|---------------------------------------------------------------------------|
D|---------------------------------------------------------------------------|
A|---------------------------------------------------------------------------|
E|--10-10-9-8---8-7-6---6-5-3---3-6------1(x32)------------------------------| 

Chorus I (again) 
e|----6---6-6-6-6----8----8--8--8--8-----6---6-6-6-6----8----8--8--8--8-------------------|
B|----6---6-6-6-6----8----8--8--8--8-----6---6-6-6-6----8----8--8--8--8-------------------|
G|----7---7-7-7-7----9----9--9--9--9-----7---7-7-7-7----9----9--9--9--9-------------------|
D|----8---8-8-8-8----10---10-10-10-10----8---8-8-8-8----10---10-10-10-10------------------|
A|----8---8-8-8-8----10---10-10-10-10----8---8-8-8-8----10---10-10-10-10------------------|
E|----6---6-6-6-6----8----8--8--8--8-----6---6-6-6-6----8----8--8--8--8--------3(x16)-----|
             Te   deseo      lo        peor   Me     deseas       lo         peor

Chorus III:
e|----6---6-6-6-6----8----8--8--8--8-----6---6-6-6-6----8----8--8--8--8-------------------|
B|----6---6-6-6-6----8----8--8--8--8-----6---6-6-6-6----8----8--8--8--8-------------------|
G|----7---7-7-7-7----9----9--9--9--9-----7---7-7-7-7----9----9--9--9--9-------------------|
D|----8---8-8-8-8----10---10-10-10-10----8---8-8-8-8----10---10-10-10-10------------------|
A|----8---8-8-8-8----10---10-10-10-10----8---8-8-8-8----10---10-10-10-10------------------|
E|----6---6-6-6-6----8----8--8--8--8-----6---6-6-6-6----8----8--8--8--8-------------------|
             Te   deseo      lo        peor   Me     deseas    lo   pe-     

e|----6---6-6-6-6----8----8--8--8--8-----------------------|
B|----6---6-6-6-6----8----8--8--8--8-----------------------|
G|----7---7-7-7-7----9----9--9--9--9-----------------------|
D|----8---8-8-8-8----10---10-10-10-10----------------------|
A|----8---8-8-8-8----10---10-10-10-10----------------------|
E|----6---6-6-6-6----8----8--8--8--8-----------------------|
      or         Kamikaze  tu  y... 

Riff: 
e|---------------------------------------------------------------------------|
B|---------------------------------------------------------------------------|
G|---------------------------------------------------------------------------|
D|---------------------------------------------------------------------------|
A|---------------------------------------------------------------------------|
E|-----3(x6)--6-5-4-3(x6)--3/8-8-8--------3(x6)--6-5-4-3(x6)--0-1-2---3------|   
       Yoooooo                          


Estar al borde se siente bien
El mundo cruel me enseñó a saltar
Puedo pretender, tratar de olvidar, alma de oropel.
Si nadie nos enseñó a vivir
Explícame quién va a manejar
Agarra el timón, dime que soy rey, es nuestra misión.

Contracorriente vuelvo a flotar
Al túnel al final de la luz
Morir por amor, vivir sin manual volvería a caer

Te deseo lo peor
Me deseas lo peor

Estar al borde se siente bien
El mundo cruel me enseñó a saltar
Puedo pretender, tratar de olvidar, alma de oropel.

Te deseo lo peor
Me deseas lo peor

Te deseo lo peor
Me deseas lo peor
Kamikaze tú y yo

************************************
Добавлено: 12.06.2016
Другие материалы по этой песне:
  • Аккорды и текст

Страница создана 12.06.2016
http://primanota.ru/diamante-electrico/kamikaze-chords.htm
Привет, Гость.
Предлагаем пройти революционный курс по гитаре.
Подарок от PrimaNota.Ru, забирай!