PrimaNota.ru - самый крупный в мире бесплатный архив песенных текстов, аккордов, табулатур и нот


Diaframma - Io Amo Lei - аккорды и текст, видео

Регистрация Запомнить меня
Войти через:  Facebook Google Twitter Vk Yandex Mail.ru

Diaframma - Io Amo Lei - аккорды и текст, видео

Печатать
Просмотров: 126
Io Amo Lei
Diaframma
		   By: Giulio Bradamante (g.bradamante@iol.it)

IO AMO LEI - Diaframma

intro:

      G7+                 F#m          G7+               A

e|-------2---5--3--2--0--------2-------2----5--3--2------5--------
B|------3---------------------2--------3-----------------5--------
G|-----4---------------------2---------4-----------------6--------
D|----5---------------------4----------5-----------------7--------
A|-------------------------4-----------------------------7--------
E|------------------------2--------0---------------------5--------


[G7+]Io amo lei, non la realta' che le sta' [F#m]intorno.
[G7+]Io amo lei, non gli altri uomini che ha [F#m]avuto
[A]dimentichiamoci il passato ... che poi ... tonto non lo saprai [G7+]mai.

Io amo lei l' intensita' del suo [F#m]sorriso
[G7+]io amo lei splendore e forza nel suo [F#m]viso
l' intensita' del suo [A]sorriso [D] [G] [D] [G] [D] [G] [D] [G] [A] [A] ..

per lei [D], vivo solo per lei [G], per lei [D]
io pazzo solo per lei. [G]

Dentro di me c'e' un isola dove non ho mai sonno
e dove vado senza provare alcun dolore
vieni a vederla questa notte ,con me

Io amo lei, l'intensita' di questi giorni
Io amo lei, folle speranza che non torni
a dare luce a questi giorni

per lei, vivo solo per lei, per lei
io pazzo solo per lei.

{ Solo chitarra }
  
     G7+

e|----2-----2---3--4--5--4--3--2--2--
B|----3----3----------------------3--
G|----4---4-----------------------4--
D|----5--5------------------------5--
A|-----------------------------------
E|-----------------------------------


Io amo lei, non la realta' che le sta' intorno.
Io,io,io amo lei, non gli altri uomini che ha avuto
per dare un senso al suo passato
perche' dovrei ,se amo lei, e non mi importa piu' del resto
se amore e' qualcosa voglio darne conto, solo a me stesso.

Per lei.




     
Добавлено: 21.09.2013
Другие материалы по этой песне:
  • Аккорды и текст

Страница создана 10.06.2012
http://primanota.ru/diaframma/io-amo-lei-chords.htm
Привет, Гость.
Предлагаем пройти революционный курс по гитаре.
Подарок от PrimaNota.Ru, забирай!