PrimaNota.ru - самый крупный в мире бесплатный архив песенных текстов, аккордов, табулатур и нот


Diabo Na Cruz - Fecha A Loja - таба, видео

Регистрация Запомнить меня
Войти через:  Facebook Google Twitter Vk Yandex Mail.ru

Diabo Na Cruz - Fecha A Loja - таба, видео

Печатать
Просмотров: 105
DIABO NA CRUZ - FECHA A LOJA (Virou! -2009)

INTRO P1:
e|---------------------------------------------------|
B|---------------------------------------------------|
G|-9-x-9-9-7-7--9-x-9-9-8--9-x-9-9-7-7--10-x-10-10-7-|
D|-9-x-9-9-7-9--9-x-9-9-7--9-x-9-9-7-9---7-x--7--7-7-|
A|-7-x-7-7-7-9--7-x-7-7-7--7-x-9-9-7-9---------------|
E|---------------------------------------------------|2x

INTRO P2:
e|-------------------------|
B|-1-1-5-5-3-3-5-5-5-5-5/7-|
G|-2-2-5-5-2-2-5-5-5-5-5/7-|
D|-2-2-3-3-0-0-5-5-3-3-3/5-|
A|-------------3-3---------|
E|-------------------------|

INTRO P3:

e|-------------------------------|
B|-\1--1-1-5-5-3-3-5-5-5-5-5/7/9-|
G|-\2--2-2-5-5-2-2-5-5-5-5-5/7/9-|
D|-\2--2-3-3-0-0-5-5-5-3-3-3/5/5-|
A|-----------------3-3-----------|
E|-------------------------------|

INTRO P4:
e|-------------------------|
B|-1-1-5-5-3-3-5-5-5-5-5/7-|
G|-2-2-5-5-2-2-5-5-5-5-5/7-|
D|-2-2-3-3-0-0-5-5-3-3-3/5-|
A|-------------3-3---------|
E|-------------------------|

e|--------------------------------|
B|-\1--3-x-3-3-1-1--3-x-3-x-3-3-1-|
G|-\2--2-x-2-2-2-2--2-x-2-x-2-2-2-|
D|-\2--0-x-0-0-2-2--0-x-0-x-0-0-2-|
A|--------------------------------|
E|--------------------------------|

VERSES:

"A brigada das formigas virou guarda do céu"

e|-----|
B|-1-1-|
G|-2-2-|
D|-2-2-|
A|-----|
E|-----|
"Ai,Ai"

"quem puder que se abrigue, que se esconda
A alvorada pressentiu-as a rondar o que ardeu"

e|-----|
B|-1-1-|
G|-2-2-|
D|-2-2-|
A|-----|
E|-----|
"Hei,Hei"

"quem quiser que anuncie algo de novo"

e|---------|
B|---------|
G|---------|
D|-7-7-7-7-|
A|-5-5-5-5-|
E|---------|

CHORUS:
e|-----------------------|
B|-----------------------|
G|-9-x-9-x-9-x-9-x-9-x-9-|
D|-9-x-7-x-9-x-9-x-9-x-9-|
A|-7-x-7-x-7-x-7-x-7-x-7-|
E|-----------------------|
"Na hora da chegada fecha a loja

e|----------------------------------|
B|----------------------------------|
G|----------------------------------|
D|-12-xx-12-xx-12-xx-12-xx-12-xx-12-|
A|-12-xx-12-xx-12-xx-12-xx-12-xx-12-|
E|-10-xx-10-xx-10-xx-10-xx-10-xx-10-|
O dono fecha a loja a beata
corre a aldeia atrás do

e|--|
B|--|
G|--|
D|-2|
A|-2|
E|--|
mel"

-Repeat INTRO P1-

VERSES:

"A verdade não servia, cozinhou-se o pitéu"

e|-----|
B|-1-1-|
G|-2-2-|
D|-2-2-|
A|-----|
E|-----|
"Ai, ai" 

"quem quiser que denuncie o bandido
O que foge, o que ferra, o que engorda no breu
E o parvo sou eu? Ai, o parvo sou eu"

e|---------|
B|---------|
G|---------|
D|-7-7-7-7-|
A|-5-5-5-5-|
E|---------|

-Repeat CHORUS-

-Repeat INTRO P2-

-Repeat INTRO P3-

-Repeat CHORUS-
"Na hora da partida fecha a loja
A lebre fecha a loja O velhote
caça pombos de Aljustrel"

-Repeat INTRO P2-

"ENDING":
e|--------------------------|
B|--------------------------|
G|-9-9-9-7-7-7--------------|
D|-9-9-9-7-7-7-5-5-5-9--9\2-|
A|-7-7-7-5-5-5-5-5-5-9--9\2-|
E|-------------3-3-3-7--7\0-|

PRE-SOLO:
"Oh-ai meu bem, oh-i-ó-ai, oh-ai meu bem, oh-ai meu bem"

e|--------|
B|--------|
G|-x-x-9--|
D|-x-x-9--|
A|-x-x-7--|
E|--------|


"Oh-ai meu bem, oh-i-ó-ai, oh-ai meu bem, oh-ai meu bem"

e|--------|
B|--------|
G|-x-x-9--|
D|-x-x-9--|
A|-x-x-7--|
E|--------|

e|-----------------------------------------------------------|
B|-----------------------------------------------------------|
G|-9-X-X-X-X-X-X-X-X-7-X-X-X-X-X-X-X-X-X-X-X-----------------|
D|-9-X-X-X-x-X-X-X-X-5-X-X-X-X-X-X-X-X-X-X-X-5-X-X-X-9-X-X-X-|
A|-7-X-X-X-x-X-X-X-X-5-X-X-X-X-X-X-X-X-X-X-X-3-X-X-X-9-X-X-X-|
E|-------------------------------------------3-X-X-X-7-X-X-X-|2X
"De que serve tanto amor se eu não for abandonado?
De que serve tanto amor se eu não quero mais fechado?"

e|------------------|
B|------------------|
G|-7---9-9--9-9-7-7-|
D|-7---9-9--9-9-7-7-|
A|-5---7-7--7-7-5-5-|
E|------------------|


...wait for it...


SOLO p1:
e|---------------------------------|
B|---------------------------------|
G|-12-12----------12-9-12-16-16-14-|
D|-12-12-12-12-12-12-9-12-14-14-12-|
A|-10-10-12-12-12-10-7-10-14-14-12-|
E|-------10-10-10------------------|

SOLO p2:
e|---------------------------------|
B|---------------------------------|
G|-12-12----------12-9-12-14-14-16-|
D|-12-12-12-12-12-12-9-12-12-12-14-|
A|-10-10-12-12-12-10-7-10-12-12-14-|
E|-------10-10-10------------------|

-Repeat SOLO p1-

-Repeat SOLO p2-

-Repeat SOLO p1-

-Repeat SOLO p2-

-Repeat SOLO p1-

-Repeat "ENDING"-

-Repeat CHORUS-

-Repeat INTRO P1-

-Repeat "ENDING"-


TAB by: MARK
www.mark.pt.la
Добавлено: 27.05.2012
Другие материалы по этой песне:
  • Аккорды и текст

Страница создана 27.05.2012
http://primanota.ru/diabo-na-cruz/fecha-a-loja-chords.htm
Привет, Гость.
Предлагаем пройти революционный курс по гитаре.
Подарок от PrimaNota.Ru, забирай!