PrimaNota.ru - самый крупный в мире бесплатный архив песенных текстов, аккордов, табулатур и нот


Diabo Na Cruz - Dona Ligeirinha - аккорды и текст, таба, бас-таба, видео

Регистрация Запомнить меня
Войти через:  Facebook Google Twitter Vk Yandex Mail.ru

Diabo Na Cruz - Dona Ligeirinha - аккорды и текст, таба, бас-таба, видео

Печатать
Просмотров: 181
Dona Ligeirinha
Diabo Na Cruz
creditos: WingsMark pela intro (tab)
         

Intro
(acordes): Em C  D  C B
ou (Tab):
e|----------------------------------|
B|----------------------------------|
G|-9-9-9-7-5-5-5-4-7-7-5-5-4-4-4-4--|
D|-9-9-9-7-5-5-5-4-7-7-5-5-4-4-4-4--|
A|-7-7-7-5-3-3-3-2-5-5-3-3-2-2-2-2--|
E|----------------------------------|3x

e|----------------------------------|
B|----------------------------------|
G|-9-9-9-7-5-5-5-4-7-7-5-5----------|
D|-9-9-9-7-5-5-5-4-7-7-5-5-5--------|
A|-7-7-7-5-3-3-3-2-5-5-3-3-5--------|
E|-------------------------3--------|



       G
Antes da chegada eu disse-lhe ao ouvido
         C                       G
Esse teu amigo mais parece teu amor
      G
Nem todo o cacheiro é para andar contigo
          C                G
Larga lá o osso oh fidalgo roedor
             Em                C
Haja algum bom senso, Dona Ligeirinha
        D                               G
Olhe que o comércio lhe afugenta muita gente
        G
Antes da chegada, oiça o que eu lhe digo
              C                                 G
Escolha o bom caminho que é para o rosto andar contente


  

refrão:
Em                 D
Vou largar o que a mamã levou à perna
Em              D
Quer agora evitar o seu bom pai oh-ai
C                   B
Tanto orgulho numa só mulher moderna oh-ai
D                  G
Que ora corre ora cai


cumps ^^)
Добавлено: 30.07.2012
Другие материалы по этой песне:

Страница создана 06.03.2012
http://primanota.ru/diabo-na-cruz/dona-ligeirinha-chords.htm
Привет, Гость.
Предлагаем пройти революционный курс по гитаре.
Подарок от PrimaNota.Ru, забирай!