PrimaNota.ru - самый крупный в мире бесплатный архив песенных текстов, аккордов, табулатур и нот


Diablo - Tristram - таба, видео

Регистрация Запомнить меня
Войти через:  Facebook Google Twitter Vk Yandex Mail.ru

Diablo - Tristram - таба, видео

Печатать
Просмотров: 1717
Tristram

Composed by: Matt Uelmen                       

Tuning : E A D G B E    

Tabbed by: Fangface
Email: slaven777@yahoo.com


The UPDATED version. :)


Let's get down to bussines.. By now you must have noticed that this is played on 2 12-
string guitars. Since I don't have a 12-string, I did what I could on a 6-string. The 
parts in the brackets is how I play it on the 6-string.
Hope you like it!

/   - slide
h   - hammer
p   - pull off
{   - natural harmonic
b   - bend
/\/ - ornamentation
*   
*   - repeat once
   


Intro: 
     
When you play these 2 guitars together it will sound like three strokes, as in the recording.         
Or if you don't have a Diablo & guitar playing friend, you can just stroke 3 times. :)
Same goes for Section 3.

Guitar 1
|-0(0)-0-----------------------------|-0(0)-0----0-----0-------------------|  
|-0(0)-0-----------------------------|-0(0)-0-----0--0--0--0---------------|
|-2(9)-2-----------------------------|-2(8)-2------2-----2-----------------|  
|-2(7)-2-----------------------------|-1(7)-1-------1-----1----------------|     
|-0(7)-0-----------------------------|-0(6)-0------------------------------|   
|--(5)-------------------------------|--(5)--------------------------------|
Guitar 2
|-0(0)---0---------------------------|-0(0)---0--0-------------------------|
|-0(0)---0---------------------------|-0(0)---0---0--0--0--0---------------|
|-2(9)---2---------------------------|-2(8)---2----2--2--2--2--------------|
|-2(7)---2---------------------------|-1(7)---1-----1--1--1--1-------------|
|-0(7)---0---------------------------|-0(6)---0----------------------------|
|--(5)-------------------------------|--(5)--------------------------------|
 


|-0(0)-0-----------------------------|-0(0)-0------------------------------|  
|-0(0)-0-----------------------------|-0(0)-0------------------------------|
|-2(9)-2-----------------------------|-2(8)-2------------------------------|  
|-2(7)-2-----------------------------|-1(7)-1------------------------------|     
|-0(7)-0-----------------------------|-0(6)-0------------------------------|   
|--(5)-------------------------------|--(5)--------------------------------|

|-0(0)---0---------------------------|-0(0)---0----------------------------|
|-0(0)---0---------------------------|-0(0)---0----------------------------|
|-2(9)---2---------------------------|-2(8)---2----------------------------|
|-2(7)---2---------------------------|-1(7)---1----------------------------|
|-0(7)---0---------------------------|-0(6)---0----------------------------|
|--(5)-------------------------------|--(5)--------------------------------|



|-0-0-----------------------------|-0-0-----------------------------|
|-3-3-----------------------------|-3-3-----------------------------|
|-2-2-----------------------------|-3-3-----------------------------|
|-3-3-----------------------------|-0-0-----------------------------| 
|-0-0-----------------------------|-0-0-----------------------------| 
|---------------------------------|---------------------------------|  
                                                                    
|-0---0---------------------------|-0---0---------------------------|
|-3---3---------------------------|-3---3---------------------------|
|-2---2---------------------------|-3---3---------------------------|
|-3---3---------------------------|-0---0---------------------------| 
|-0---0---------------------------|-0---0---------------------------| 
|---------------------------------|---------------------------------|  



|-0-0-----------------------------|-0-0-----------------------------|
|-3-3-----------------------------|-3-3-----------------------------|
|-2-2-----------------------------|-3-3-----------------------------|
|-0-0-----------------------------|-0-0-----------------------------| 
|-0-0-----------------------------|-0-0-----------------------------| 
|---------------------------------|---------------------------------|  
 
|-0---0---------------------------|-0---0---------------------------|
|-3---3---------------------------|-3---3---------------------------|
|-2---2---------------------------|-3---3---------------------------|
|-0---0---------------------------|-0---0---------------------------| 
|-0---0---------------------------|-0---0---------------------------| 
|---------------------------------|---------------------------------|



|-0(0)-0----------------12{----------|-0(0)-0----0-----0-------------------|  
|-0(0)-0------------12{-12{----------|-0(0)-0-----0--0--0--0---------------|
|-2(9)-2-----------------------------|-2(8)-2------2-----2-----------------|  
|-2(7)-2---------7{------------------|-1(7)-1-------1-----1----------------|     
|-0(7)-0-----------------------------|-0(6)-0------------------------------|   
|--(5)-------------------------------|--(5)--------------------------------|

|-0(0)---0---------------------------|-0(0)---0--0-------------------------|
|-0(0)---0---------------------------|-0(0)---0---0--0--0--0---------------|
|-2(9)---2---------------------------|-2(8)---2----2--2--2--2--------------|
|-2(7)---2---------------------------|-1(7)---1-----1--1--1--1-------------|
|-0(7)---0---------------------------|-0(6)---0----------------------------|
|--(5)-------------------------------|--(5)--------------------------------|



|-0(0)-0-----------------------------|-0(0)-0------------------------------||  
|-0(0)-0-----------------------------|-0(0)-0------------------------------||
|-2(9)-2-----------------------------|-2(8)-2------------------------------||  
|-2(7)-2-----------------------------|-1(7)-1------------------------------||     
|-0(7)-0-----------------------------|-0(6)-0------------------------------||   
|--(5)-------------------------------|--(5)--------------------------------||

|-0(0)---0---------------------------|-0(0)---0----------------------------||
|-0(0)---0---------------------------|-0(0)---0----------------------------||
|-2(9)---2---------------------------|-2(8)---2----------------------------||
|-2(7)---2---------------------------|-1(7)---1----------------------------||
|-0(7)---0---------------------------|-0(6)---0----------------------------||
|--(5)-------------------------------|--(5)--------------------------------||





Section 1:

Guitars 1 & 2        
|(1)--0---0---0--(1)--0---0---0-|(1/2)--0---0---0--(2)--0---0---0-|   
|-----0---0---0-------0---0---0-|-------0---0---0-------0---0---0-|   
|---2---2---2---2---2---2---2---|-----3---3---3---3---3---3---3---| 
|-3---------------3-------------|-3/4---------------4-------------|   
|-------------------------------|---------------------------------| 
|-------------------------------|---------------------------------| 



|(2/1)--0---0---0--(1)--0---0---0-|(1/2)--0---0---0--(2)--0---0---0-|   
|-------0---0---0-------0---0---0-|-------0---0---0-------0---0---0-|   
|-----2---2---2---2---2---2---2---|-----3---3---3---3---3---3---3---| 
|-4/3---------------3-------------|-3/4---------------4-------------|   
|---------------------------------|---------------------------------| 
|---------------------------------|---------------------------------| 
                    

                      /\/                                /\/
|(1)--0---0---0--(1)--010--0---0-|(1/2)--0---0---0--(2)--040--0---0-|   
|-----0---0---0-------0----0---0-|-------0---0---0-------0----0---0-|   
|---2---2---2---2---2----2---2---|-----3---3---3---3---3----3---3---| 
|-3---------------3--------------|-3/4---------------4--------------|   
|--------------------------------|----------------------------------| 
|--------------------------------|----------------------------------| 



|(2/1)--0---0---0--(1)--0---0---0-|-------0-------0----0------------||   
|-------0---0---0-------0---0---0-|---------0-------0--0------------||   
|-----2---2---2---2---2---2---2---|-----3-------3------3------------|| 
|-4/3---------------3-------------|-3/4-------2--------0------------||   
|---------------------------------|---------------------------------|| 
|---------------------------------|---------------------------------|| 





Section 2:              

Guitars 1 & 2
||--------0---------------0---------|-------0---------------0------------|| 
||------3---3-----------3---3-------|-----3---3-----------3---3----------||
||*---6-------6---6---6-------6---6-|---2-------2---2---2-------2---2---*||
||*-4-----------4---4-----------4---|-3-----------3---3-----------3-----*||
||----------------------------------|------------------------------------||
||----------------------------------|------------------------------------||


                                  Bridge:
|-------------------------0-------|-------2-/------5-/------8-/---------11-|
|-------1---------------1---1-----|---1-----/--5-----/--8-----/---11-------|
|-----4---4-----------4-------4---|-----2---/----4---/----7---/------10----|
|---2-------2---2---2-----------2-|-1-------/4-------/7-------/10----------| 
|-0-----------0---0---------------|----------------------------------------|
|---------------------------------|----------------------------------------|



|----------^12{------------v12{----|---^12{-------------------------||
|----------^12{------------v12{----|---^12{-------------------------||
|----------^12{------------v12{----|---^12{-------------------------||
|----------^12{------------v12{----|---^12{-------------------------||
|----------^12{------7{----v-7{----|---^-7{-------------------------||
|-12{------^12{--------------------|--------------------------------||




   
Section 3:

Don't forget the owl hoot in this part. :)

Guitar 1 
||--0-0----------------------------|-2-2----------------------------||
||--8-8----------------------------|-3-3----------------------------||
||*-5-5----------------------------|-4-4---------------------------*||
||*-7-7----------------------------|-5-5---------------------------*||
||--0-0----------------------------|-0-0----------------------------||
||---------------------------------|--------------------------------||
Guitar 2
||--0---0--------------------------|-2---2--------------------------||
||--8---8--------------------------|-3---3--------------------------||
||*-5---5--------------------------|-4---4-------------------------*||
||*-7---7--------------------------|-5---5-------------------------*||
||--0---0--------------------------|-0---0--------------------------||
||---------------------------------|--------------------------------||
  
 


|-0-0-----------------------------|-0-0----------------------------|
|-1-1-----------------------------|-3-3----------------------------|
|-2-2-----------------------------|-4-4----------------------------|
|-3-3-----------------------------|-5-5----------------------------|
|-x-x-----------------------------|-3-3----------------------------|
|-1-1-----------------------------|--------------------------------|

|-0---0---------------------------|-0---0--------------------------|
|-1---1---------------------------|-3---3--------------------------|
|-2---2---------------------------|-4---4--------------------------|
|-3---3---------------------------|-5---5--------------------------|
|-x---x---------------------------|-3---3--------------------------|
|-1---1---------------------------|--------------------------------|
 

      
Guitar 1 doesn't actually play these chords, but it sounds empty without them.

|-0-------------------------------|-0-------------------------------|
|-0-------------------------------|-0-------------------------------|
|-2-------------------------------|-1-------------------------------|
|-3-------------------------------|-2-------------------------------|
|-3-------------------------------|-2-------------------------------|
|-1-------------------------------|-0-------------------------------|

|---------------------------------|----------------------0{---------|
|---------------------------------|-----------------0{---0{---------|
|---------------------------------|---------------------------------|
|---------------------------------|---------------------------------|
|---------------------------------|---------------------------------|
|---------------------x-x-x-x--/7-|-0-------------------------------|



 
||--0-0----------------------------|-2-2----------------------------||
||--8-8----------------------------|-3-3----------------------------||
||*-5-5----------------------------|-4-4---------------------------*||
||*-7-7----------------------------|-5-5---------------------------*||
||--0-0----------------------------|-0-0----------------------------||
||---------------------------------|--------------------------------||

||--0---0--------------------------|-2---2--------------------------||
||--8---8--------------------------|-3---3--------------------------||
||*-5---5--------------------------|-4---4-------------------------*||
||*-7---7--------------------------|-5---5-------------------------*||
||--0---0--------------------------|-0---0--------------------------||
||---------------------------------|--------------------------------||
  
 


|-0-0-----------------------------|-0-0----------------------------|
|-1-1-----------------------------|-3-3----------------------------|
|-2-2-----------------------------|-4-4----------------------------|
|-3-3-----------------------------|-5-5----------------------------|
|-x-x-----------------------------|-3-3----------------------------|
|-1-1-----------------------------|--------------------------------|

|-0---0---------------------------|-0---0--------------------------|
|-1---1---------------------------|-3---3--------------------------|
|-2---2---------------------------|-4---4--------------------------|
|-3---3---------------------------|-5---5--------------------------|
|-x---x---------------------------|-3---3--------------------------|
|-1---1---------------------------|--------------------------------|




|-0-0-----------------------------|-0-------------------------------||
|-0-0-----------------------------|-0-------------------------------||
|-2-2-----------------------------|-1-------------------------------||
|-3-3-----------------------------|-2-------------------------------||
|-3-3-----------------------------|-2-------------------------------||
|-1-1-----------------------------|-0-------------------------------||

|-0---0---------------------------|---------------------------------||
|-0---0---------------------------|---------------------------------||
|-2---2---------------------------|---------------------------------||
|-3---3---------------------------|---------------------------------||
|-3---3--------------------2b3b2--|---------------------------------||
|-1---1---------------------------|-0-------------------------------||

  



Section 4:
  
Guitars 1 & 2  
|------(0)-------------(0)--------|------------(0)-------------(0)--|
|-----1-----1---------1-----1-----|-----0-----0---------0-----0-----|
|---2-----2-----2---2-----2-----2-|---0-----0-----0---0-----0-----0-|
|-------2---------------2---------|-------------2---------------2---|
|-0---------------0---------------|-------2---------------2---------|
|-------------0---------------0---|-0---------------0---------------|


        
|---------------------------------|---0-------0-------0-------0-----|
|-----0-----------0-------0-------|-6-------6-------5-------5---5---|
|-------2---2-------2-------2-----|-----4-------4-------4---------4-|
|---0-----0---0-------0-------0---|-------7-------7-------6---------| 
|-2-------------2-------2---------|-8-------8-------7-------7-------|
|---------------------------------|---------------------------------|



|------(0)-------------(0)--------|------------(0)--------0---------|
|-----1-----1---------1-----1-----|-----0-----0---------0-----------|
|---2-----2-----2---2-----2-----2-|---0-----0-----0---0-------0-----|
|-------2---------------2---------|-------------2-----------2-------|
|-0---------------0---------------|-------2---------------------2/5-|
|-------------0---------------0---|-0---------------0---------------|
       


|------------7{-----------------||
|------------7{----12{----12{---||
|------------7{-----------------||
|------------7{-----------------||
|------------x------------------||
|---7--------7{-----------------||





Bridge:

Guitar 1
|---2-------2-------2-------2-----|---2---2---2---2---2---2---2---2-|
|-----2-------2-------2-------2---|---------------------------------|
|-------3-------3-------3-------3-|---------------------------------|
|-4-------4-------4-------4-------|-4---4---4---4---4---3---0-------|
|---------------------------------|-----------------------------4---|
|---------------------------------|---------------------------------|
Guitar 2
|---2---2---2---2---2---2---2---2-|---2---2---2---2---2---2---2---2-|
|---------------------------------|---------------------------------|
|---------------------------------|---------------------------------|
|-4---4---4---4---4---4---4---4---|-4---4---4---4---4---3---0-------|
|---------------------------------|-----------------------------4---|
|---------------------------------|---------------------------------|



This is section 2, actually, but it doesn't hurt to write it down again.. :)

Guitars 1 & 2
||--------0---------------0---------|-------0---------------0------------|| 
||------3---3-----------3---3-------|-----3---3-----------3---3----------||
||*---6-------6---6---6-------6---6-|---2-------2---2---2-------2---2---*||
||*-4-----------4---4-----------4---|-3-----------3---3-----------3-----*||
||----------------------------------|------------------------------------||
||----------------------------------|------------------------------------||


                                  Bridge:
|-------------------------0-------|-------2-/------5-/------8-/---------11-||
|-------1---------------1---1-----|---1-----/--4-----/--7-----/---11-------||
|-----4---4-----------4-------4---|-----2---/----5---/----8---/------10----||
|---2-------2---2---2-----------2-|-1-------/4-------/7-------/10----------|| 
|-0-----------0---0---------------|----------------------------------------||
|---------------------------------|----------------------------------------||





Section 5:

This is not the exact strumming (I'll leave that to you), but I'd say the (new) chords 
are pretty accurate.

Guitar 1
||--0-0-0-0-0-0-0-0-0-0-0-0-0-0-0-0---||-0-0-0-0-0-0-0-0-0-0-0-0-0-0-0-0-|
||--0-0-0-0-0-0-0-0-0-0-0-0-0-0-0-0---||-0-0-0-0-0-0-0-0-0-0-0-0-0-0-0-0-|
||*-4-4-4-4-4-4-4-4-4-4-4-4-4-4-4-4--*||-4-4-4-4-4-4-4-4-4-4-4-4-4-4-4-4-|
||*-2-2-2-2-2-2-2-2-2-2-2-2-2-2-2-2--*||-2-2-2-2-2-2-2-2-2-2-2-2-2-2-2-2-|
||------------------------------------||---------------------------------|
||------------------------------------||---------------------------------|
Guitar 2
||------------------------------------||---0-----0-----0---0-----0-----0-|
||------------------------------------||-----0-----0---------0-----0-----|
||*----------------------------------*||-9-----9-----9---8-----8-----5---|
||*----------------------------------*||---------------------------------|
||------------------------------------||---------------------------------|
||------------------------------------||---------------------------------|




|-0-0-0-0-0-0-0-0-0-0-0-0-0-0-0-0-|-2-2-2-2-2-2-2-2-2-2-2-2-2-2-2-2-|
|-0-0-0-0-0-0-0-0-0-0-0-0-0-0-0-0-|-0-0-0-0-0-0-0-0-0-0-0-0-0-0-0-0-|
|-4-4-4-4-4-4-4-4-4-4-4-4-4-4-4-4-|-4-4-4-4-4-4-4-4-4-4-4-4-4-4-4-4-|
|-2-2-2-2-2-2-2-2-2-2-2-2-2-2-2-2-|-4-4-4-4-4-4-4-4-4-4-4-4-4-4-4-4-|
|---------------------------------|---------------------------------|
|---------------------------------|---------------------------------|

|-----0-----0---------0-----0-----|---------------------------------|
|---0-----0-----0---0-----0-----0-|-0-----0-----0---0-----0-------0-|
|-5-----4-----4---4-----4-----4---|---4-----4-----4---3-----3---0---|
|---------------------------------|-----4-----4---------4-----4-----|
|---------------------------------|---------------------------------|
|---------------------------------|---------------------------------|




|-2-2-2-2-2-2-2-2-2-2-2-2-2-2-2-2-|-0-0-0-0-0-0-0-0-0-0-0-0-0-0-0-0-|
|-0-0-0-0-0-0-0-0-0-0-0-0-0-0-0-0-|-0-0-0-0-0-0-0-0-0-0-0-0-0-0-0-0-|
|-4-4-4-4-4-4-4-4-4-4-4-4-4-4-4-4-|-4-4-4-4-4-4-4-4-4-4-4-4-4-4-4-4-|
|-4-4-4-4-4-4-4-4-4-4-4-4-4-4-4-4-|-2-2-2-2-2-2-2-2-2-2-2-2-2-2-2-2-|
|---------------------------------|---------------------------------|
|---------------------------------|---------------------------------|

|---------------------------------|---0-----0-----0---0-----0-----0-|
|-----0---0-----0---0-----0-----0-|-----0-----0---------0-----0-----|
|-0---------4---------0-----0-----|-9-----9-----9---8-----8-----5---|
|---4---4-----4---4-----4-----4---|---------------------------------|
|---------------------------------|---------------------------------|
|---------------------------------|---------------------------------|




|-0-0-0-0-0-0-0-0-0-0-0-0-0-0-0-0-|-2-2-2-2-2-2-2-2-2-2-2-2-2-2-2-2-|
|-0-0-0-0-0-0-0-0-0-0-0-0-0-0-0-0-|-0-0-0-0-0-0-0-0-0-0-0-0-0-0-0-0-|
|-4-4-4-4-4-4-4-4-4-4-4-4-4-4-4-4-|-4-4-4-4-4-4-4-4-4-4-4-4-4-4-4-4-|
|-2-2-2-2-2-2-2-2-2-2-2-2-2-2-2-2-|-4-4-4-4-4-4-4-4-4-4-4-4-4-4-4-4-|
|---------------------------------|---------------------------------|
|---------------------------------|---------------------------------|

|-----0-----0---------0-----0-----|---------------------------------|
|---0-----0-----0---0-----0-----0-|-0-----0-----0---0-----0-------0-|
|-5-----4-----4---4-----4-----4---|---4-----4-----4---3-----3---0---|
|---------------------------------|-----4-----4---------4-----4-----|
|---------------------------------|---------------------------------|
|---------------------------------|---------------------------------|




|-2-2-2-2-2-2-2-2-2-2-2-2-2-2-2-2-|-2-2-2-2-2-2-2-2-2-2-2-2-2-2-2-2-|
|-0-0-0-0-0-0-0-0-0-0-0-0-0-0-0-0-|-2-2-2-2-2-2-2-2-3-3-3-3-3-3-3-3-|
|-4-4-4-4-4-4-4-4-4-4-4-4-4-4-4-4-|-3-3-3-3-3-3-3-3-3-3-3-3-3-3-3-3-|
|-4-4-4-4-4-4-4-4-4-4-4-4-4-4-4-4-|-2-2-2-2-2-2-2-2-2-2-2-2-2-2-2-2-|
|---------------------------------|---------------------------------|
|---------------------------------|---------------------------------|

|------(2)---(2)---(2)---(2)------|---------------------------------|
|-----0---0-----0-----0-----0---0-|-2-----2-----2---3-----3-----3---|
|-0---------4-----4-----4-----4---|---3-----3-----3---3-----3-----3-|
|---4---4-----4-----4-----4-------|-----4-----4---------4-----4-----|
|---------------------------------|---------------------------------|
|---------------------------------|---------------------------------|




|-2-2-2-2-2-2-2-2-2-2-2-2-2-2-2-2-|--0-----------------------------||
|-2-2-2-2-2-2-2-2-3-3-3-3-3-3-3-3-|--3-----------------------------||
|-3-3-3-3-3-3-3-3-3-3-3-3-3-3-3-3-|--3-----------------------------||
|-4-4-4-4-4-4-4-4-4-4-4-4-4-4-4-4-|--4-----------------------------||
|---------------------------------|--------------------------------||
|---------------------------------|--------------------------------||

|---------------------------------|--0-----------------------------||
|-2-----2-----2---3-----3-----3---|--3-----------------------------||
|---3-----3-----3---3-----3-----3-|--3-----------------------------||
|-----4-----4---------4-----4-----|--4-----------------------------||
|---------------------------------|--------------------------------||
|---------------------------------|--------------------------------||





Section 6:

Guitar 1
||----------2---------------3-------|---------2---------------0-------|
||--------0---0-----------0---0-----|-------0---0-----------0---0-----|
||*-----2-------2-------2-------2---|-----0-------0-------0-------0---|
||*---0-----------0---0-----------0-|---0-----------0---0-----------0-|
||--2---------------2---------------|-2---------------2---------------|
||----------------------------------|---------------------------------|
Guitar 2
||----------------------------------|---------------------------------|
||--------0---0-----------0---0-----|-------0---0-----------0---0-----|
||*-----2---2---2-------2---2---2---|-----0---0---0-------0---0---0---|
||*---0-----------0---0-----------0-|---0-----------0---0-----------0-|
||--2---------------2---------------|-2---------------2---------------|
||----------------------------------|---------------------------------|



|---------2---------------3-------|---------2---------------0---------||
|-------0---0-----------0---0-----|-------0---0-----------0---0-------||
|-----2-------2-------2-------2---|-----0-------0-------0-------0----*||
|---0-----------0---0-----------0-|---0-----------0---0-----------0--*||
|-2---------------2---------------|-2---------------2-----------------||
|---------------------------------|-----------------------------------||

|---------------------------------|-----------------------------------||
|-------0---0-----------0---0-----|-------0---0-----------0---0-------||
|-----2---2---2-------2---2---2---|-----0---0---0-------0---0---0----*||
|---0-----------0---0-----------0-|---0-----------0---0-----------0--*||
|-2---------------2---------------|-2---------------2-----------------||
|---------------------------------|-----------------------------------||



Guitars 1 & 2
|-------------------------0-------|-------------------------0-------|
|-------1---------------1---1-----|-------1---------------1---1-----|
|-----4---4-----------4-------4---|-----4---4-----------4-------4---|
|---2-------2---2---2-----------2-|---3-------3---3---3-----------3-|
|-0-----------0---0---------------|-0-----------0---0---------------|
|---------------------------------|---------------------------------|



|-------------------------0-------|---------------------------------|
|-------1---------------1---1-----|-------1---------------0---------|
|-----4---4-----------4-------4---|-----4---4-----------2---2-------|
|---2-------2---2---2-----------2-|---3-------3---3---3-------3---3-|
|-0-----------0---0---------------|-0-----------0---2-----------2---|
|---------------------------------|---------------------------------|



|-------------------------0-------|---------------------------------|
|-------3---------------3---3-----|-------2---------------2---------|
|-----0---0-----------0-------0---|-----2---2-----------0---0-------|
|---3-------3---3---3-----------3-|---2-------2---2---2-------2---2-|
|-1-----------1---1---------------|-0-----------0---1-----------1---|
|---------------------------------|---------------------------------|



|---------3-------3--------2-------||
|-------0---0-------0------0-------||
|-----0-------0-------0----0-------||
|---1-----------1-------1--1-------||
|-2------------------------2-------||
|----------------------------------||



Tha end. 
Mail me if you have any corrections. 
:)
Добавлено: 05.07.2012
Вам также может быть интересно:
Другие материалы по этой песне:
  • Аккорды и текст

Страница создана 05.07.2012
http://primanota.ru/diablo/tristram-chords.htm
Привет, Гость.
Предлагаем пройти революционный курс по гитаре.
Подарок от PrimaNota.Ru, забирай!