PrimaNota.ru - самый крупный в мире бесплатный архив песенных текстов, аккордов, табулатур и нот


Diablo Swing Orchestra - Heroines - текст песни, бас-таба, видео

Регистрация Запомнить меня
Войти через:  Facebook Google Twitter Vk Yandex Mail.ru

Diablo Swing Orchestra - Heroines - текст песни, бас-таба, видео

Печатать
Просмотров: 340
Уроки эстрадного вокала в Санкт-Петербурге
Авторы музыки: Daniel Håkansson
Авторы текста: Daniel Håkansson
Artist : Diablo Swing Orchestra (http://www.diabloswing.com/)
Song   : Heroines
Album  : The Butcher's Ballroom

       			************************
       			*                      *
       			* Tabbed By Bassman366 *
       			*                      *
		        ************************

Somewhere in the Intro
G|------------------------|
D|------------------------|
A|------------------------|
E|1 \ 6/5-----1 \ 6/5-----| (x2)
B|------------------------|

Main Riff
G|---------------|---------------|
D|---------------|---------------|
A|---------------|---------------|
E|--5---5---5--56|--5---5---5--56| (x6)
B|6---6--6-6--6--|66--6--6-6--6--|


Bridge 1
G|--------------------------------|---------------------------|--------|
D|--------------------------------|---------------------------|--------|
A|--------------------------------|---------------------------|--------|
E|--------3333333355555555--------|6-8-10-11-10-8-3-----------|--------| (x1)
B|66666666----------------66666666|---------------------------|0-1-3-6-|


Main Riff (x3)


Bridge 1 (x1)


Disto main Riff
G|----------------|
D|----------------|
A|----------------|
E|--5---5---5-5---| (x6)
B|6---6--6-6------|


Bridge 2
G|--------------------------------|-----------------------|
D|--------------------------------|-----------------------|
A|--------------------------------|-----------------------|
E|66666666333333338888888855555555|6666666633333333(BREAK)| (x1)
B|--------------------------------|-----------------------|


Main Riff (x6)

Bridge 1 (x1)

Disto main Riff (x6)

Bridge 2 but, Instead of break...
G|------------------------|
D|------------------------|
A|------------------------|
E|3---5---8---3---1---0---| (x8)
B|------------------------|

Outro

End


PS: For the corrected tab from Daniel himself, check this:
http://www.diabloswing.com/HeroinesBassTab.pdf
Добавлено: 25.04.2012
Вам также может быть интересно:
Другие материалы по этой песне:
  • Аккорды и текст

Страница создана 25.04.2012
http://primanota.ru/diablo-swing-orchestra/heroines-chords.htm
Привет, Гость.
Предлагаем пройти революционный курс по гитаре.
Подарок от PrimaNota.Ru, забирай!