PrimaNota.ru - самый крупный в мире бесплатный архив песенных текстов, аккордов, табулатур и нот


Diablo Swing Orchestra - Exit Strategy of a Wrecking Ball - текст песни, таба, видео

Регистрация Запомнить меня
Войти через:  Facebook Google Twitter Vk Yandex Mail.ru

Diablo Swing Orchestra - Exit Strategy of a Wrecking Ball - текст песни, таба, видео

Печатать
Просмотров: 83
-------------------------------------------------------------------------------
           EXIT STRATEGY OF A WRECKING BALL - Diablo Swing Orchestra
-------------------------------------------------------------------------------
Tabbed by: Ben Amend
E-mail: ben.blendersmoothie@gmail.com

Tuning: Drop A

*NOTE*: Most of the guitar parts in this song sound best when picked entirely in down-strokes (as opposed to
alternate picking); this gives it more of a heavy, jackhammer-esque sound.

Because of the infrequent palm-muting throughout this song, I will indicate a palm muted note/chord with a
colon [ : ] beneath the column.



INTRO

*Distorted Tone*

B |-------------------------------------------------3-|
F#|-----------------------------------------------2---|
D |-------------------------------------------0h3-----|
a |--3---2---3--------------------3---2---3-2---------|
E |--5---4---5--------------------5---4---5-----------|
A |0---0---0----0-2-3-5-3-2h3p0-0---0---0-------------|
   :   :   :    : : : : :       :   :   :

B |---------------------------------------------------------|
F#|---------------------------------------------------------|
D |---------------------------------------------------------|
a |--3---2---3--------------2---8-----5----7----2-----------|
E |--5---4---5----------1-4-----10----7----8----4p0-0-0-1-4-|
A |0---0---0----0-2-3-5-------0-----0----0----0-------------|
   :   :   :    : : : : : : : :     :    :    :

B |-------------------------------------------------12-|
F#|----------------------------------------------11----|
D |-------------------------------------------12-------|
a |--3---2---3------------------3---2---3--11----------|
E |--5---4---5----------0-1-4---5---4---5--------------|
A |0---0---0----0-2-3-5-------0---0---0----------------|
   :   :   :    : : : : : : : :   :   :

B |---------------------------------------------|
F#|---------------------------------------------|
D |---------------------------------------------|
a |--3---2---3------------------3---2---0-------|
E |--5---4---5--5-1-0-1-4-1-0---5---4---1---4---|
A |0---0---0------------------0---0---0---0-7---|
   :   :   :                  :   :   :   :

B |--------------------------------|
F#|--------------------------------|
D |--------------------------------|
a |--------------------------------|
E |--------------------------------|
A |0-8-7-0-6-7-0-7-6-0-3-0-3-0-2-3-|
   :     :     :     :   :   :

PLAY 3x
B |--------------------------------|
F#|--------------------------------|
D |--------------------------------|
a |--------------------------------|
E |--------------------------------|
A |0-0-3-0-3-2-0-2-0-2-0-3-0-0-2-3-|
   : :   :     :   :   :   : :

B |----------------------------------|
F#|----------------------------------|
D |----------------------------------|
a |----------------------------------|
E |----------------------------------|
A |0-0-12-0-11-0-0-8-0-7-0-6-0-0-6-7-|
   : :    :    : :   :   :   : :

PLAY 3x
B |--------------------------------|
F#|--------------------------------|
D |--------------------------------|
a |--------------------------------|
E |--------------------------------|
A |0-0-3-0-3-2-0-2-0-2-0-3-0-0-2-3-|
   : :   :     :   :   :   : :

B |----------------|
F#|----------------|
D |----------------|
a |----------------|
E |----------------|
A |0-0-3-0-3-2-0-2-|
   : :   :     :

B |x-x-x-x-x-x-----------------------------------------------------------------------------|
F#|x-x-x-x-x-x-----------------------------------------------------------------------------|
D |x-x-x-x-x-x-----------------------------------------------------------------------------|
a |x-x-x-x-x-x-----------------------------------------------------------------------------|
E |x-x-x-x-x-x-----------------------------------------------------------------------------|
A |x-x-x-x-x-x-11h12--12-0-0-8p7-0-6h7--7-0-0-11p0-0-11h12--12-0-0-8p7-0-6h7--7-0-0-11p0-0-|
                         : :     :        : :      :           : :     :        : :      :

PLAY 2x
B |----------------------------------------------------------------------------|
F#|----------------------------------------------------------------------------|
D |----------------------------------------------------------------------------|
a |----------------------------------------------------------------------------|
E |----------------------------------------------------------------------------|
A |11h12--12-0-0-8p7-0-6h7--7-0-0-11p0-0-11h12--12-0-0-8p7-0-6h7--7-0-0-11p0-0-|
             : :     :        : :      :           : :     :        : :      :

B |---------------------------------------------------------------------|
F#|---------------------------------------------------------------------|
D |---------------------------------------------------------------------|
a |---------------------------------------------------------------------|
E |---------------------------------------------------------------------|
A |11h12--12-0-0-8p7-0-6h7--7-0-0-6h7-7-3--3-7-3-3-3-3-2--2-3-2-2-3-2p0-|
             : :     :        : :             



VERSE

PLAY 3x
B |--------------------------------------------|
F#|--------------------------------------------|
D |--------------------------------------------|
a |--------------------------------------------|
E |--------------------------------------------|
A |0--7-2-3-5-7--5-3-2-3-5--3-2-0-2-0--7-8-5-7-|



PRE-CHORUS

B |--------------------------------------------------------------------------------------------------|
F#|--------------------------------------------------------------------------------------------------|
D |--------------------------------------------------------------------------------------------------|
a |--------------------------------------------------------------------------------------------------|
E |----------------------------------------------------------------------------------------------7-8-|
A |5--8-5-8-8-3--7-3-7-7-11--7-11-7-7-11--7-11-7-7-5--8-5-8-8-3--7-3-7-7-11--7-11-7-7-11--7-11-7-----|



CHORUS (I'm pretty sure this part is actually just the bass, but it still sounds fine on the guitar)

*Clean Tone*

PLAY 4x
B |----------------------------------------------------------------|
F#|----------------------------------------------------------------|
D |----------------------------------------------------------------|
a |----------------------------------------------------------------|
E |8-8-8-8-8-8-8-8-7-7-7-7-7-7-7-7-5-5-5-5-5-5-5-5-0-0-0-0-0-0-0-0-|
A |----------------------------------------------------------------|

B |----|
F#|----|
D |----|
a |----|
E |5---|
A |----|



INSTRUMENTAL

*Distorted Tone*

B |-------------------------------------------------3-|
F#|-----------------------------------------------2---|
D |-------------------------------------------0h3-----|
a |--3---2---3--------------------3---2---3-2---------|
E |--5---4---5--------------------5---4---5-----------|
A |0---0---0----0-2-3-5-3-2h3p0-0---0---0-------------|
   :   :   :    : : : : :       :   :   :     

B |---------------------------------------------------------|
F#|---------------------------------------------------------|
D |---------------------------------------------------------|
a |--3---2---3--------------2---8-----5----7----2-----------|
E |--5---4---5----------1-4-----10----7----8----4p0-0-0-1-4-|
A |0---0---0----0-2-3-5-------0-----0----0----0-------------|
   :   :   :    : : : : : : : :     :    :    :

B |---------------------------------------------0-|
F#|-------------------------------------------2---|
D |---------------------------------------0-3-----|
a |--3---2---3------------------3---2---3---------|
E |--5---4---5----------0-1-4---5---4---5---------|
A |0---0---0----0-2-3-5-------0---0---0-----------|
   :   :   :    : : : : : : : :   :   :   : : :

B |---------------------------------------------|
F#|---------------------------------------------|
D |---------------------------------------------|
a |--3---2---3------------------3---2---0-------|
E |--5---4---5--5-1-0-1-4-1-0---5---4---1---4---|
A |0---0---0------------------0---0---0---0-7---|
   :   :   :                  :   :   :   :

B |--------------------------------|
F#|--------------------------------|
D |--------------------------------|
a |--------------------------------|
E |--------------------------------|
A |0-8-7-0-6-7-0-7-6-0-3-0-3-0-2-3-|
   :     :     :     :   :   :



VERSE

PLAY 4x
B |--------------------------------------------|
F#|--------------------------------------------|
D |--------------------------------------------|
a |--------------------------------------------|
E |--------------------------------------------|
A |0--7-2-3-5-7--5-3-2-3-5--3-2-0-2-0--7-8-5-7-|



PRE-CHORUS

B |--------------------------------------------------------------------------------------------------|
F#|--------------------------------------------------------------------------------------------------|
D |--------------------------------------------------------------------------------------------------|
a |--------------------------------------------------------------------------------------------------|
E |----------------------------------------------------------------------------------------------7-8-|
A |5--8-5-8-8-3--7-3-7-7-11--7-11-7-7-11--7-11-7-7-5--8-5-8-8-3--7-3-7-7-11--7-11-7-7-11--7-11-7-----|



CHORUS

*Clean Tone*

PLAY 4x
B |----------------------------------------------------------------|
F#|----------------------------------------------------------------|
D |----------------------------------------------------------------|
a |----------------------------------------------------------------|
E |8-8-8-8-8-8-8-8-7-7-7-7-7-7-7-7-5-5-5-5-5-5-5-5-0-0-0-0-0-0-0-0-|
A |----------------------------------------------------------------|



OUTRO

*Distorted Tone*

PLAY 3x
B |--------------------------------|
F#|--------------------------------|
D |--------------------------------|
a |--------------------------------|
E |--------------------------------|
A |0-0-3-0-3-2-0-2-0-2-0-3-0-0-2-3-|
   : : : : : : : : : : : : : : : :

B |----------------------------------|
F#|----------------------------------|
D |----------------------------------|
a |----------------------------------|
E |----------------------------------|
A |0-0-12-0-11-0-0-8-0-7-0-6-0-0-6-7-|
   : : : : : : : : : : : : : : : : :

PLAY 3x
B |--------------------------------|
F#|--------------------------------|
D |--------------------------------|
a |--------------------------------|
E |--------------------------------|
A |0-0-3-0-3-2-0-2-0-2-0-3-0-0-2-3-|
   : : : : : : : : : : : : : : : :

B |----------------x-x-x-x-x-x-x-x-|
F#|----------------x-x-x-x-x-x-x-x-|
D |----------------x-x-x-x-x-x-x-x-|
a |----------------x-x-x-x-x-x-x-x-|
E |----------------x-x-x-x-x-x-x-x-|
A |0-0-3-0-3-2-0-2-x-x-x-x-x-x-x-x-|
   : : : : : : : :

PLAY 3x
B |----------------------------------|
F#|----------------------------------|
D |----------------------------------|
a |----------------------------------|
E |----------------------------------|
A |0-0-12-0-11-0-0-8-0-7-0-6-0-0-6-7-|
   : :    :    : :   :   :   : :
B |----------------------------------|
F#|----------------------------------|
D |----------------------------------|
a |----------------------------------|
E |----------------------------0-1-4-|
A |0-0-12-0-11-0-0-8-0-0-2-3-5-------|
   : :    :    : :   : :

PLAY 3x
B |----------------------------------|
F#|----------------------------------|
D |----------------------------------|
a |----------------------------------|
E |----------------------------------|
A |0-0-12-0-11-0-0-8-0-7-0-6-0-0-6-7-|
   : :    :    : :   :   :   : :

B |----------------------------------|
F#|----------------------------------|
D |----------------------------------|
a |----------------------------------|
E |----------------------------0-1-4-|
A |0-0-12-0-11-0-0-8-0-7-0-6-0-------|
   : :    :    : :   :   :   :

PLAY 3x
B |----------------------------------|
F#|----------------------------------|
D |----------------------------------|
a |----------------------------------|
E |----------------------------------|
A |0-0-12-0-11-0-0-8-0-7-0-6-0-0-6-7-|
   : :    :    : :   :   :   : :

B |----------------------------------|
F#|----------------------------------|
D |----------------------------------|
a |----------------------------------|
E |----------------------------0-1-4-|
A |0-0-12-0-11-0-0-8-0-0-2-3-5-------|
   : :    :    : :   : :

PLAY 3x
B |----------------------------------|
F#|----------------------------------|
D |----------------------------------|
a |----------------------------------|
E |----------------------------------|
A |0-0-12-0-11-0-0-8-0-7-0-6-0-0-6-7-|
   : :    :    : :   :   :   : :

B |------------------------|
F#|------------------------|
D |------------------------|
a |------------------------|
E |5--3--1--0--1-3---------|
A |----------------2--3--0-|


************************************

| /   slide up
| \   slide down
| h   hammer-on
| p   pull-off
| ~   vibrato
| +   harmonic
| x   Mute note
| b   Bend
| pb  Pre-bend
| br  Bend release
| pbr Pre-bend release
| brb Bend release bend

************************************
Добавлено: 19.12.2015
Вам также может быть интересно:
Другие материалы по этой песне:
  • Аккорды и текст

Страница создана 16.09.2014
http://primanota.ru/diablo-swing-orchestra/exit-strategy-of-a-wrecking-ball-chords.htm
Привет, Гость.
Предлагаем пройти революционный курс по гитаре.
Подарок от PrimaNota.Ru, забирай!