PrimaNota.ru - самый крупный в мире бесплатный архив песенных текстов, аккордов, табулатур и нот


Diablo Blvd - Saint Of Killers - таба, видео

Регистрация Запомнить меня
Войти через:  Facebook Google Twitter Vk Yandex Mail.ru

Diablo Blvd - Saint Of Killers - таба, видео

Печатать
Просмотров: 106
Diablo Blvd. - "Saint of Killers"
Off of the 2012 album "Builders of Empires"
Transcribed by imspazzen

Drop C tuning: (low to high) CGCFAD

Gtr. 1: Left Speaker
Gtr. 2: Right Speaker


{[Intro]}
  Gtr. 1
D|------------------------------------|-------------------------|
A|---------6-6--------------6-6-------|-------------------------|
F|-------------7-7--------------7-7\--|-5-(5)---10---7----------|
C|-----7-7--------------7-7-----------|-5-(5)---10---7----------| Play 4 times
G|------------------------------------|-3-(3)----8---5----------| 
C|-0----------------0-----------------|-------------------------|


{[Verse 1]}
  (Gtr. 1 plays Intro 3 times)
  Gtr.2
D|---------------------------------|----------------------------------|
A|--------------------8-8-11-11-10-|-10-------------8-10-10s11-10-8s6-|
F|---------------------------------|----------------------------------|
C|---------------------------------|----------------------------------|
G|---------------------------------|----------------------------------|
C|---------------------------------|----------------------------------|


D|---------------------------------|----------------------------------|
A|--------------------8-8-11-11-10-|-10-------------8-10-10s11-10-8s6-|
F|-7-------------------------------|----------------------------------|
C|---------------------------------|----------------------------------|
G|---------------------------------|----------------------------------|
C|---------------------------------|----------------------------------|


D|---------------------------------|------------------------------|
A|--------------------10-10s8-8----|------------8s6---------------|
F|-7----------------7--------------|-----------------7------------|
C|---------------------------------|------------------------------|
G|---------------------------------|------------------------------|
C|---------------------------------|------------------------------|


  Gtr. 1
D|---------------------------------------|------------------------------|
A|---------6--6--------------6--6--------|------------------------------|
F|---------------7-7---------------7--7\-|-5-(5)---10---7--7-7-7-7-7-2--|
C|-----7-7---------------7-7-------------|-5-(5)---10---7--7-7-7-7-7-2--|
G|---------------------------------------|-3-(3)----8---5--5-5-5-5-5-0--| 
C|-0-----------------0-------------------|------------------------------|
 |
 |Gtr. 2
D|---------------------------------------|------------------------------|
A|---------10-10s8-8---------11-11-10-10-|---------8s6------------------|
F|-------------------------7-------------|--------------7---------------|
C|---------------------------------------|------------------------------|
G|---------------------------------------|------------------------------|
C|---------------------------------------|------------------------------|



{[Chorus 1]}
  Gtr. 1
D|-----------------------------|-----------------------------|
A|-----------------------------|-----------------------------|
F|-3------3--3-3--3-3---3--3-3-|-5------5----5--5-5---5--5-5/|
C|-3------3--3-3--3-3---3--3-3-|-5------5----5--5-5---5--5-5/|
G|-1------1--1-1--1-1---1--1-1-|-3------3----3--3-3---3--3-3/|
C|-----------------------------|-----------------------------|
   1      2      3      4        1      2      3      4  etc.

  Gtr. 1
D|------------------------------------|----------------------------------|
A|------------------------------------|----------------------------------|
F|-12-----12--12--12-12---12-12-12-12-|-12------12--12--12-12---12---\---|
C|-12-----12--12--12-12---12-12-12-12-|-12------12--12--12-12---12---\---|
G|-10-----10--10--10-10---10-10-10-10-|-10------10--10--10-10---10---\---|
C|------------------------------------|----------------------------------|
 |
 |Gtr. 2
D|------------------------------------|----------------------------------|
A|------------------------------------|----------------------------------|
F|------------------------12s14-14-14-|-14s12-------------------5h7-7----|
C|------------------------------------|---------------------5s7----------|
G|------------------------10s12-12-12-|-12s10----------------------------|
C|------------------------------------|----------------------------------|


D|-----------------------------|--------------------------------|
A|-----------------------------|--------------------------------|
F|-3------3--3-3--3-3---3--3---|--------------------------------|
C|-3------3--3-3--3-3---3--3-2-|-3------3-----3--3-3---3---3----|
G|-1------1--1-1--1-1---1--1-0-|-3------3-----3--3-3---3---3----|
C|-----------------------------|-3------3-----3--3-3---3---3p0--|
 |
 |
D|-----------------------------|--------------------------------|
A|--------------6-------6s8----|-8s10---10s11-11s13----13-11-10-|
F|-5h7----7p5-7----------------|--------------------------------|
C|-----------------------------|--------------------------------|
G|-----------------------------|--------------------------------|
C|-----------------------------|--------------------------------|


D|------------------------------|------------------------------|
A|------------------------------|------------------------------|
F|------------------------------|------------------------------|
C|-3s5----5---5--5-5----5---5-5-|-5----5---5--5-5----5---5-2---|
G|-3s5----5---5--5-5----5---5-5-|-5----5---5--5-5----5---5-0---|
C|-3s5----5---5--5-5----5---5-5-|-5----5---5--5-5----5---5-----|
 |
 |
D|------------------------------|------------------------------|
A|*11r10--10s8----6-8-8s10-8-6--|-6s8--------------6---6-8-8s10|
F|-----------------------------7|-------------5h7----7---------| *pre-bend 10th fret to 11
C|------------------------------|------------------------------|   and then release
G|------------------------------|------------------------------|
C|------------------------------|------------------------------|


D|------------------------------|---------------------------------|
A|------------------------------|---------------------------------|
F|-3------3----3--3-3----3--3---|---------------------------------|
C|-3------3----3--3-3----3--3-2-|-3-------3-----3--3-3---3---3----|
G|-1------1----1--1-1----1--1-0-|-3-------3-----3--3-3---3---3----|
C|------------------------------|-3-------3-----3--3-3---3---3p0--|
 |
 |
D|------------------------------|---------------------------------|
A|-8----6---------6-8s10-10---8-|-8s10-10----------------10--11---|
F|--------7---------------------|---------10----------------------|
C|------------------------------|---------------------------------|
G|------------------------------|---------------------------------|
C|------------------------------|---------------------------------|


D|-----------------------------------------|--------------|
A|-----------------------------------------|--------------|
F|-----------------------------------------|--------------|
C|-3s5----5----5---------------------------|-----rest-----|
G|-3s5----5----5---------------------------|--------------|
C|-3s5----5----5---------------------------|--------------|
 |
 |
D|-----------------------------------------|--------------|
A|-11s13-------------10-11p10----10--------|--------------|
F|----------------12----------12----10-----|--------------|
C|-------------------------------------12--|-----rest-----|
G|-----------------------------------------|--------------|
C|-----------------------------------------|--------------|



  Gtr. 1
D|------------------------------------|-------------------------|
A|---------6-6--------------6-6-------|-------------------------|
F|-------------7-7--------------7-7\--|-5-(5)---10---7----------|
C|-----7-7--------------7-7-----------|-5-(5)---10---7----------| Play 2 times
G|------------------------------------|-3-(3)----8---5----------| 
C|-0----------------0-----------------|-------------------------|



{[Verse 2]}
  Gtr. 1
D|---------------------------------------|------------------------------------|
A|---------6-6--------------6--6---------|------------------------------------|
F|-------------7-7----------------7--7\--|-5-(5)---10---7---------------------|
C|-----7-7--------------7-7--------------|-5-(5)---10---7---------------------|
G|---------------------------------------|-3-(3)----8---5---------------------| 
C|-0----------------0--------------------|------------------------------------|
 |
 |Gtr.2
D|---------------------------------------|------------------------------------|
A|----------------------8-8-11-11-10-10--|------------------8-10-10s11-10-8s6-|
F|---------------------------------------|------------------------------------|
C|---------------------------------------|------------------------------------|
G|---------------------------------------|------------------------------------|
C|---------------------------------------|------------------------------------|


D|---------------------------------------|-------------------------------------|
A|---------6--6--------------6--6--------|-------------------------------------|
F|---------------7-7---------------7--7\-|-5-(5)---10---7----7-------7--7--7-2-|
C|-----7-7---------------7-7-------------|-5-(5)---10---7----7-------7--7--7-2-|
G|---------------------------------------|-3-(3)----8---5----5-------5--5--5-0-| 
C|-0-----------------0-------------------|-------------------------------------|
 |
 |
D|---------------------------------------|-------------------------------------|
A|-------------------------8-11-11-10-10-|-------------------8-10-10s11-10-----|
F|-7-------------------------------------|--------------------------------12---|
C|---------------------------------------|----------------------------------12-|
G|---------------------------------------|-------------------------------------|
C|---------------------------------------|-------------------------------------|


{[Chorus 2]}
  Gtr. 1
D|-----------------------------|-----------------------------|
A|-----------------------------|-----------------------------|
F|-3------3--3-3--3-3---3--3-3-|-5------5----5--5-5---5--5-5/|
C|-3------3--3-3--3-3---3--3-3-|-5------5----5--5-5---5--5-5/|
G|-1------1--1-1--1-1---1--1-1-|-3------3----3--3-3---3--3-3/|
C|-----------------------------|-----------------------------|
 |
 |Gtr. 2
D|-----------------------------|-----------------------------|
A|-----------------------------|-----------------------------|
F|-10------------------------10|-10s12-----------------------|
C|-----------------------------|-----------------------------|
G|-----------------------------|-----------------------------|
C|-----------------------------|-----------------------------|

  Gtr. 1
D|------------------------------------|----------------------------------|
A|------------------------------------|----------------------------------|
F|-12-----12--12--12-12---12-12-12-12-|-12------12--12--12-12---12---\---|
C|-12-----12--12--12-12---12-12-12-12-|-12------12--12--12-12---12---\---|
G|-10-----10--10--10-10---10-10-10-10-|-10------10--10--10-10---10---\---|
C|------------------------------------|----------------------------------|
 |
 |Gtr. 2
D|------------------------------------|----------------------------------|
A|------------------------------------|----------------------------------|
F|------------------------12s14-14-14-|-14s12-------------------5h7-7----|
C|------------------------------------|---------------------5s7----------|
G|------------------------10s12-12-12-|-12s10----------------------------|
C|------------------------------------|----------------------------------|


D|-----------------------------|---------------------------------|
A|-----------------------------|---------------------------------|
F|-3------3--3-3--3-3---3--3---|---------------------------------|
C|-3------3--3-3--3-3---3--3-2-|-3------3-----3--3-3----3---3----|
G|-1------1--1-1--1-1---1--1-0-|-3------3-----3--3-3----3---3----|
C|-----------------------------|-3------3-----3--3-3----3---3p0--|
 |
 |
D|-----------------------------|---------------------------------|
A|--------------6-----6-6s8--8-|-8s10---10s11-11s13--13s15-11-10-|
F|-5h7----7p5-7----------------|---------------------------------|
C|-----------------------------|---------------------------------|
G|-----------------------------|---------------------------------|
C|-----------------------------|---------------------------------|


D|------------------------------|------------------------------|
A|------------------------------|------------------------------|
F|------------------------------|------------------------------|
C|-3s5----5---5--5-5----5---5-5-|-5----5---5--5-5----5---5-2---|
G|-3s5----5---5--5-5----5---5-5-|-5----5---5--5-5----5---5-0---|
C|-3s5----5---5--5-5----5---5-5-|-5----5---5--5-5----5---5-----|
 |
 |
D|------------------------------|------------------------------|
A|-11s10--10s8----6-8-8s10-8-6--|-6s8--------------6-6s8-10-8--|
F|-----------------------------7|-------------5h7--------------|
C|------------------------------|------------------------------|
G|------------------------------|------------------------------|
C|------------------------------|------------------------------|


D|---------------------------------|---------------------------------------|
A|---------------------------------|---------------------------------------|
F|-3------3----3--3-3-----3---3----|---------------------------------------|
C|-3------3----3--3-3-----3---3--2-|-3-------3-----3--3-----3----3---3--1--|
G|-1------1----1--1-1-----1---1--0-|-3-------3-----3--3-----3----3---3--1--|
C|---------------------------------|-3-------3-----3--3-----3----3---3--1--|
 |
 |
D|---------------------------------|---------------------------------------|
A|-6h8--6--------6-8s10-10s11-10-8-|-8s10-------------------10-11s13-13s15-|
F|--------7------------------------|-------10---------10h12----------------|
C|---------------------------------|---------10----------------------------|
G|---------------------------------|---------------------------------------|
C|---------------------------------|---------------------------------------|


{[Bridge]}
  Gtr. 1
D|---------------------------------|
A|---------------------------------|
F|---------------------------------|
C|-0-------------------------------|
G|-0-------------------------------|
C|-0-------------------------------|
 |
 |Gtr. 2
D|---------------------------------|
A|-15------------------------------|
F|---------------------------------|
C|---------------------------------|
G|---------------------------------|
C|---------------------------------|

   Gtr. 1 and 2     x3
D||-------------------||-----------------|
A||-------------------||-----------------|
F||*-----------------*||-----------------|
C||*-----------------*||-----------------|
G||--0-0-0-0-0-0-0-0--||-0-0-0-0-0-0-0-0-|
C||--0-0-0-0-0-0-0-0--||-0-0-0-0-0-0-0-0-|
     * * * * * * * *
                                                                                  x4
D||-----------------------------------------|---------------------------------------||
A||-----------------------------------------|---------------------------------------||
F||*----------------------------------------|--------------------------------------*||
C||*----12p0-12-0-0-10p0-12p0-13p0-12-10-12-|----12p0-12-0-0-15p0-17p0-13p0-12-12~-*||
G||--0--------------------------------------|-0-------------------------------------||
C||--0--------------------------------------|-0-------------------------------------||


{[Chorus 3]}
  Gtr. 1 and 2
D|----------|------------|--------------------|-----------------------------------|
A|----------|------------|--------------------|-----------------------------------|
F|-3--------|------------|--------------------|-----------------------------------|
C|-3--------|-3------3---|-3/5--5--5--5-------|-------------------------5-5-5-5---|
G|-1--------|-3------3---|-3/5--5--5--5-------|-5-5-5-5-5-5-5-5-5-5-5-5-5-5-5-5---|
C|----------|-3------3p0-|-3/5--5--5--5-------|-5-5-5-5-5-5-5-5-5-5-5-5-5-5-5-5p0-|
                                                * * * * * * * * * * * *

D|----------|------------|--------------|---------------------------------|
A|----------|------------|--------------|---------------------------------|
F|-3--------|------------|--------------|---------------------------------|
C|-3--------|-3----------|-0-0----------|-0-----0-----0-----0-----0-0-0-0-|
G|-1--------|-3----------|-0-0----------|-0-0-0-0-0-0-0-0-0-0-0-0-0-0-0-0-|
C|----------|-3----------|-0-0----------|-0-0-0-0-0-0-0-0-0-0-0-0-0-0-0-0-|
                                            * *   * *   * *   * *
D|----------|------------|-------------------|
A|----------|------------|-------------------|
F|-3--------|------------|-------------------|
C|-3--------|-3----------|-0-----------------|
G|-1--------|-3----------|-0-----------------|
C|----------|-3----------|-0-----------------|

************************************

| /   shift slide up
| \   shift slide down
| h   hammer-on
| p   pull-off
| s   legato slide
| *   palm mute

************************************
________________________________________________________________________
Feel free to post any questions/corrections in the comments! Thanks!
                                        
                                            
                                            
                                        
                                                                
                        
                        
                        
                                                        
    /* Ultimate-Guitar - Tab Pages */
    (function() {
        var opts = {
            artist: "Diablo Blvd",
            song: "Saint Of Killers",
            genre: "",
            adunit_id: 39382312,
            div_id: "cf_async_" + Math.floor((Math.random() * 999999999)),
            hostname: "srv.tonefuse.com"
        };
        document.write('');var c=function(){cf.showAsyncAd(opts)};if(window.cf)c();else{cf_async=!0;var r=document.createElement("script"),s=document.getElementsByTagName("script")[0];r.async=!0;r.src="//"+opts.hostname+"/showads/showad.js";r.readyState?r.onreadystatechange=function(){if("loaded"==r.readyState||"complete"==r.readyState)r.onreadystatechange=null,c()}:r.onload=c;s.parentNode.insertBefore(r,s)};
    })();
    
    
                        
                                                    
                                                                    
                                    
                                     var amznTargs='';
                                     var key = 'amznslots';
                                     if ("amznads" in window) var values = amznads.getTokens('3x2'); //comma separated tokens
                                     if (values.length > 0) amznTargs='&'+key+'='+values;
                                    document.write('');
                                    
                                    
                                                            
                                                

                    

                
                
                
                    
                        comments
                    
                                            
                            We did not receive enough feedback on this tab! Please rate:
                        
                                        
                        print report bad tab
                    
                                            
                                                            1
                                                            2
                                                            3
                                                            4
                                                            5
                                                    
                                    
                
                                    
                
                    
                             
    
        1 comment total. 
            
    
                                
                
                
                    
                        
                            
                                
                                    
                                    
                                
                                                                    0
                                                            
                            reply
                            
                            
                        
                        nathan.frenken wrote on July 10 2015, 11:23 am  
                    
                    
                        D|-----------------------------------------------|------------------------|
A|-----------------------------------------------|------------------------|
F|-----------------------------------------------|-5-(5)---10---7---------|
C|-----------15-15-12-12-------------15-15-12-12-|-5-(5)---10---7---------|
G|-----12-12------------------12-12--------------|-3-(3)----8---5---------|
C|-0----------------------0----------------------|------------------------|
Добавлено: 25.12.2015
Другие материалы по этой песне:
  • Аккорды и текст

Страница создана 25.12.2015
http://primanota.ru/diablo-blvd/saint-of-killers-chords.htm
Привет, Гость.
Предлагаем пройти революционный курс по гитаре.
Подарок от PrimaNota.Ru, забирай!