PrimaNota.ru - самый крупный в мире бесплатный архив песенных текстов, аккордов, табулатур и нот


Dia Frampton - I Have Time - таба, видео

Регистрация Запомнить меня
Войти через:  Facebook Google Twitter Vk Yandex Mail.ru

Dia Frampton - I Have Time - таба, видео

Печатать
Просмотров: 127
-------------------------------------------------------------------------------
                             I Have Time - Dia Frampton
-------------------------------------------------------------------------------
Tabbed by: Julian Gutierrez
E-mail: juliangutierrez0824 @gmail.com

Tuning:Standard E

 Dm (for those who'd want to know)
e|---------------------------(5)--|
B|---------6------6------6--------|
G|-----7------7------7------7-----|
D|-------7------7------7------7---| x2  The five (a) is played the second time through
A|-3/5----------------------------|    It serves as the transition to the next set.
E|--------------------------------|

 Gmaj
e|---------3------3------3--------|
B|--------------------------------|
G|-----4------4------4------4-----|
D|-------5------5------5------5---|
A|--------------------------------|
E|-1/3----------------------------|

 Dm
e|--------------------------------|
B|---------6------6------6--------|
G|-----7------7------7------7-----|
D|-------7------7------7------7---| x2 
A|-3/5----------------------------|    
E|--------------------------------|

Dm
The lake sort of knows me.
Was it you who promised time?
Gmaj
Lead me to a land so green,
Dm
So she'll stay a while.

Dm
Please take me there.
I'm ready.
Gmaj.                            Dm
The ship sways, but the heart is steady.
I have time.



That's all there is to it. Its a very short song but it gave me feels.. So yeah! Enjoy!

************************************

| /   slide up
| \   slide down
| h   hammer-on
| p   pull-off
| ~   vibrato
| +   harmonic
| x   Mute note
| b   Bend
| pb  Pre-bend
| br  Bend release
| pbr Pre-bend release
| brb Bend release bend

************************************
Добавлено: 10.06.2016
Другие материалы по этой песне:
  • Аккорды и текст

Страница создана 10.06.2016
http://primanota.ru/dia-frampton/i-have-time-chords.htm
Привет, Гость.
Предлагаем пройти революционный курс по гитаре.
Подарок от PrimaNota.Ru, забирай!