PrimaNota.ru - самый крупный в мире бесплатный архив песенных текстов, аккордов, табулатур и нот


Di-rect - Just The Way I Do - аккорды и текст, таба, видео

Регистрация Запомнить меня
Войти через:  Facebook Google Twitter Vk Yandex Mail.ru

Di-rect - Just The Way I Do - аккорды и текст, таба, видео

Печатать
Просмотров: 169
Just The Way I Do
Di-rect
Di-rect  Just The Way I Do.
 Tabbed by Ramon v/d Laan thedarkspawn@hotmail.com.
  
                        JUST TBE wAy I Do
 
From: Ramon van der Laan

Title:Just The Way I Do
Artist:Di-Rect                     
Source:???                     G#5
Transcribed by Ramon v/d Laan
                           D||--6~----||
                           A||--6~----||
 Starting Of With Melody and then strum G#5  E||--4~----||



   Riff A
E||----------------------------------------------------------------------------------------------------||
B||-8--9--8--6----------6----8--9--8--6----------8b--6----8--9--8--6--------6--8--11--8--11--13--11----||
G||-------------8------------------------8-----------------------------8--8----------------------------||
D||------------------8------------------------8--------------------------------------------------------||
A||----------------------------------------------------------------------------------------------------||
E||----------------------------------------------------------------------------------------------------||


Verse:  D#        A#5        G#5        A#5        D#        A#5        G#5          x2    
      
E||--------------------------------------------------------------------------------------------||
B||--------------------------------------------------------------------------------------------||
G||-8-8-8-8-8-----------------------------------------8-8-8-8-8--------------------------------||
D||-8-8-8-8-8---8-8-8-8-8---6-6-6-6-6---8-8-8-8-8-----8-8-8-8-8---8-8-8-8-8---6-6-6-6-6-6-6-6--||
A||-6-6-6-6-6---8-8-8-8-8---6-6-6-6-6---8-8-8-8-8-----6-6-6-6-6---8-8-8-8-8---6-6-6-6-6-6-6-6--||
E||-------------6-6-6-6-6---4-4-4-4-4---6-6-6-6-6-----------------6-6-6-6-6---4-4-4-4-4-4-4-4--||
     ^^^^^
    (Verse: with couple of PM'S In It)   (Go For Feeling)


Pre-Chorus: F  F  (F/G)  G#5  A#5

E||------------------------------------||
B||------------------------------------||
G||------------------------------------||
D||-3-----3-----(3/5)-----6-----8------||
A||-3-----3-----(3/5)-----6-----8------||
E||-1-----1-----(1/3)-----4-----6------||


Chorus: D#  A#5  G#5
        D#  A#5  G#5  A#5
        D#  A#5  G#5
        D#  A#5  G/G#  G/G#  A#5  (Get The Idea?)


Verse 2:D# A#5 G#5 A#5
        D# A#5 G#5 G#5 x2


Pre Chorus:F F (F/G) G#5 A#5


Interlude: Fii  C#5  C

E||---------------------||
B||---------------------||
G||--10-----6-----5-----||
D||--10-----6-----5-----||
A||--8------4-----3-----||
E||---------------------||


SOLO:

E||----------------------------------------------------------------------------------------------------||
B||--8--9--8--6--------6~---8--9--8--6---------8b--6----8--9--8--6-------6~-----8~-8~-8~-8~-8h~--------||
G||--------------8~---------------------8~--------------------------8~------7~-------------------------||
D||------------------8-----------------------8---------------------------------------------------------||
A||----------------------------------------------------------------------------------------------------||
E||----------------------------------------------------------------------------------------------------||

E||----------------------------------------------------------------------------------------------------||
B||-11--13--11----------11--13h----11--13--11---------11--14h--11--13--11------16-16-16-16-16--21--23--||
G||-------------13--11-------------------------13--11----------------------13--20-20-20-20-20----------||
D||----------------------------------------------------------------------------------------------------||
A||----------------------------------------------------------------------------------------------------||
E||----------------------------------------------------------------------------------------------------||

E||----------------------------------------------------||
B||-23-23-23-23~-------13~---16--13~---16--13~--13~-11-||
G||----------------------------------------------------||
D||----------------------------------------------------||
A||----------------------------------------------------||
E||----------------------------------------------------||


Chorus: D# A#5 G#5
        D# A#5 G#5 A#5
        D# A#5 G#5 
        D# A#5 G/G# G/G# A#5


End On:D# A#5 G#5  2nd guitar does: G||-8-----------||
                  D||-x----8----6-||
                  A||-6----x----x-||
                  E||------6----4-||
 
           
Done!!!       (This Is My First Tab Ever So It's Probably Wrong)         

Добавлено: 13.10.2013
Другие материалы по этой песне:
  • Аккорды и текст

Страница создана 01.04.2012
http://primanota.ru/di-rect/just-the-way-i-do-chords.htm
Привет, Гость.
Предлагаем пройти революционный курс по гитаре.
Подарок от PrimaNota.Ru, забирай!