PrimaNota.ru - самый крупный в мире бесплатный архив песенных текстов, аккордов, табулатур и нот


Di-rect - I Just Cant Stand - таба, видео

Регистрация Запомнить меня
Войти через:  Facebook Google Twitter Vk Yandex Mail.ru

Di-rect - I Just Cant Stand - таба, видео

Печатать
Просмотров: 150
Уроки эстрадного вокала в Санкт-Петербурге
D5     =  -X-5-7-7-X-X-
G5     =  -3-5-5-X-X-X-
A#5    =  -X-1-3-3-X-X-
C5     =  -X-3-5-5-X-X-
E5     =  -0-2-2-x-x-x-

[ Intro ]

D5 G5 A#5 C5

[ Riff ]

e|-------------------------------------------|
B|-------------------------------------------|
G|-------------------------------------------|
D|-----------7-7--------------7-8-7----------|
A|---5-5-8-8-----8-8--5-5-8-5-------8--------|
E|-------------------------------------------| 3x

e|-------------------------------------------|
B|-------------------------------------------|
G|-------------------------------------------|
D|-----------7-7------10-10-----------7------|
A|---5-5-8-8-----8-8--------8-8-10-10---8----|
E|-------------------------------------------| 1x


[ verse 1 ]

D5
No answers just violence
A#5		G5			   D5
And somehow your words stay unheard
D5
Like your name is a number
A#5         G5		 
Hey mister Billion Sixty-four

[ Bridge ]

A#5		 C5
Some people
		  D5
Don't get it
				     A#5
They're like a one-way road
		   C5
Narrow-minded

No-go!

[ chorus ]

D5
I just can't stand
	  G5
So much selfishness
	  A#5
So much foolishness

Attention addicts

Fanatic fools
      C5
You're so cold

D5	A#5 C5

[ verse 2 ] 

D5
Hear them laughing their heads odd
A#5		G5
Now we are choking on their crap
D5
Not to mention their impoliteness
A#5		C5
Who created social blindness

[ Bridge ]

A#5		C5
Some people
             D5
Don't get it

They're like a one-way road
A#5		  C5
Narrow-minded
No-go!

[ Chorus ]

D5
I just can't stand
	  G5
So much selfishness
	  A#5
So much foolishness

Attention addicts

Fanatic fools
       C5
You're so cold

D5
I just can't stand
	  G5
So much selfishness
A#5			C5
Attention addicts
			   D5
Fanatic fools today

[  Bridge  ]

(pm intro)
D5	
A#5 C5

D5 E5 A#5 C5 D5

[ Refrein ]

D5
I just can't stand
	  G5
So much selfishness
	  A#5
So much foolishness

Attention addicts

Fanatic fools
     C5
You're so cold


D5
I just can't stand
	  G5
So much selfishness
A#5			C5
Attention addicts
			   D5
Fanatic fools today
G
Today
A#5 C5
Today
D5
Добавлено: 16.06.2012
Другие материалы по этой песне:
  • Аккорды и текст

Страница создана 16.06.2012
http://primanota.ru/di-rect/i-just-cant-stand-chords.htm
Привет, Гость.
Предлагаем пройти революционный курс по гитаре.
Подарок от PrimaNota.Ru, забирай!