PrimaNota.ru - самый крупный в мире бесплатный архив песенных текстов, аккордов, табулатур и нот


Deyarmond Edison - The Lake - таба, видео

Регистрация Запомнить меня
Войти через:  Facebook Google Twitter Vk Yandex Mail.ru

Deyarmond Edison - The Lake - таба, видео

Печатать
Просмотров: 84
-------------------------------------------------------------------------------
                             THE LAKE - Deyarmond Edison
-------------------------------------------------------------------------------
Tabbed by: Tom Hill
E-mail: tom-hill95@hotmail.co.uk

Tuning: Standard

e|---------------------------------------------------------------------------|
B|---------------------------------------------------------------------------|
G|---7--7--7--7--6--6--6--6--------------------------------------------------|
D|---------------------------9--9--9--9--7--7--7-----------------------------|
A|---------------------------------------------------------------------------|
E|---5--5--5--5--5--5--5--5--5--5--5--5--5--5--5-----------------------------|

e|---------------------------------------------------------------------------|
B|---------------------------------------------------------------------------|
G|---7--7--7--7--6--6--6--6--------------------------------------------------|
D|---------------------------9--9--9--9--7--7--7-----------------------------|
A|---------------------------------------------------------------------------|
E|---5--5--5--5--5--5--5--5--5--5--5--5--5--5--5-----------------------------|

e|---------------------------------------------------------------------------|
B|---------------------------------------------------------------------------|
G|----------------------6----------------------------------------------------| PLAY
D|---------7-------7-9-------------------------------------------------------| X2
A|--5-(7)/9-----7h9----------------------------------------------------------|
E|---------------------------------------------------------------------------|

e|---------------------------------------------------------------------------|
B|----------------------7----------------------------------------------------|
G|--9-6----------6-7------9-------------9--9----------9----------------------|
D|------9-7---(7)-----------7-----6h7---------7--6-7-------------7-----------|
A|-----------------------------------------------------------7-9-------------|
E|---------------------------------------------------------------------------|


************************************

| /   slide up
| \   slide down
| h   hammer-on
| p   pull-off
| ~   vibrato
| +   harmonic
| x   Mute note
| b   Bend
| pb  Pre-bend
| br  Bend release
| pbr Pre-bend release
| brb Bend release bend

************************************
Добавлено: 31.10.2013
Другие материалы по этой песне:
  • Аккорды и текст

Страница создана 31.10.2013
http://primanota.ru/deyarmond-edison/the-lake-chords.htm
Привет, Гость.
Предлагаем пройти революционный курс по гитаре.
Подарок от PrimaNota.Ru, забирай!