PrimaNota.ru - самый крупный в мире бесплатный архив песенных текстов, аккордов, табулатур и нот


Dexter Gordon - Dexter Digs In - таба, видео

Регистрация Запомнить меня
Войти через:  Facebook Google Twitter Vk Yandex Mail.ru

Dexter Gordon - Dexter Digs In - таба, видео

Печатать
Просмотров: 68
-------------------------------------------------------------------------------
                          Dexter Digs In - Dexter Gordon
-------------------------------------------------------------------------------
Tuning: Standard

[A]
  Db6      Db6/F   Gb6     Gdim7    Db6/Ab    Bbm7   Ebm7     Ab7
e|----------------|----------------|----------------|----------------|
B|----------------|----------------|----------------|--4-6-----------|
G|3-6---3-6-------|6-------6---6-6-|3-6---3-6-------|6-----6---------|
D|------------6---|----6-----------|------------6---|----------------|
A|----------------|----------------|----------------|----------------|
E|----------------|----------------|----------------|----------------|
 
 Db6     Db6/F    Gb6     Gdim7    Db6/Ab           Ab13     Db6
e|----------------|----------------|----------------|----------------|
B|----------------|----------------|----------------|6---------------|
G|3-6---3-6-------|6-------6---6-6-|3-6---3-6-------|----5-6---------|
D|------------6---|----6-----------|------------6---|----------------|
A|----------------|----------------|----------------|----------------|
E|----------------|----------------|----------------|----------------|
  
[B]

  Gb9                               F9
e|----------------|----------------|----------------|----------------|
B|----------------|----------------|----------------|----------------|
G|----------------|----------------|----------------|----------------|
D|----------------|----------------|----------------|----------------|
A|----------------|----------------|----------------|----------------|
E|----------------|----------------|----------------|----------------|

  E9                                A9               Ab9
e|----------------|----------------|----------------|----------------|
B|----------------|----------------|----------------|----------------|
G|----------------|----------------|----------------|----------------|
D|----------------|----------------|----------------|----------------|
A|----------------|----------------|----------------|----------------|
E|----------------|----------------|----------------|----------------|


Song Structure [A][A][B][A]

The chord changes come on the beats 1 and 3. The melody is written for the A section while the B section
is left empty for improvisation. Timing for the melody is written such that 
each dash mark - is worth 1 sixteenth note. Example shown below.

|1e+a2e+a3e+a4e+a|
|----------------|
Добавлено: 12.06.2016
Другие материалы по этой песне:
  • Аккорды и текст

Страница создана 12.06.2016
http://primanota.ru/dexter-gordon/dexter-digs-in-chords.htm
Привет, Гость.
Предлагаем пройти революционный курс по гитаре.
Подарок от PrimaNota.Ru, забирай!