PrimaNota.ru - самый крупный в мире бесплатный архив песенных текстов, аккордов, табулатур и нот


Dexter Gordon - Cheese Cake - таба, видео

Регистрация Запомнить меня
Войти через:  Facebook Google Twitter Vk Yandex Mail.ru

Dexter Gordon - Cheese Cake - таба, видео

Печатать
Просмотров: 131
Уроки эстрадного вокала в Санкт-Петербурге
Авторы музыки: Dexter Gordon

-------------------------------------------------------------------------------
                          Cheesecake - Dexter Gordon
-------------------------------------------------------------------------------
Tuning: Standard
  
[A]
  Cm                 Dm7(b5)  G7        Cm
e|------------------|------------------|------------------|------------------|
B|------------------|------------------|------------------|------------------|
G|------------------|------------------|------------------|------------------|
D|-5-----3----------|------------------|------------------|---------------3-6|
A|-----6----------5-|-6-------3-5-6--3-|------------------|--------------3---|
E|------------------|------------------|-3----------------|------------------|

  Fm      Gm7(b5)    Fm/Ab    Gm7(b5)   Fm 
e|------------------|------------------|------------------|------------------|
B|------------------|------------------|------------------|------------------|
G|-5-------3--------|------------------|------------------|------------------|
D|-------6--------5-|-6-------3-5-6--3-|------------------|--------------6-5-|
A|------------------|------------------|------------------|------------------|
E|------------------|------------------|------------------|------------------|
  
  Dm7(b5)            G7                 Fm7                Bb7
e|------------------|------------------|------------------|------------------|
B|------------------|------------------|------------------|------------------|
G|------------------|------------------|------------------|------------------|
D|----------------5-|---3--------------|-3-3------------3-|------------------|
A|------------------|-------6-5----3---|------------------|---6---5-3--------|
E|------------------|------------------|------------------|-------------7----|
  

                                       |-First ending------------------------|
  Ebm7      Ab7      Dm7(b5)    G7      Cm6                Dm7(b5)   G7
e|------------------|------------------|------------------|------------------|
B|------------------|------------------|------------------|------------------|
G|------------------|------------------|------------------|------------------|
D|------------------|------------------|------------------|------------------|
A|-6-6------------6-|---5---3-2---5----|------------------|---------------3-6|
E|------------------|------------------|-5----------------|-4-6-4-3------3---|

                                       |-Second ending-----------------------|
                                        Cm
                                      e|------------------|------------------|
                                      B|------------------|------------------|
                                      G|------------------|------------------|
                                      D|------------------|------------------|
                                      A|-3-3--------------|--------------3---|
                                      E|------------------|------------------|

[B]
  C9                                    Bb9 
e|------------------|------------------|------------------|------------------|
B|------------------|------------------|------------------|------------------|
G|------------------|------------------|------------------|------------------|
D|-7----------------|-7----------------|----5-------------|-5----------------|
A|--------------7-5-|-----7-5----------|--------------5-3-|-----5-3----------|
E|------------------|------------------|------------------|------------------|

  Ab9                                   Dm7(b5)            G7
e|------------------|------------------|------------------|------------------|
B|------------------|------------------|------------------|------------------|
G|------------------|------------------|------------------|------------------|
D|----3-------------|-3----------------|------------------|-3----------------|
A|--------------3---|------6-------3---|-4------5-------6-|-----6-5------3-6-|
E|----------------6-|--------6---------|------------------|-------------3----|


Song Structure {[A][A][B][A]}

Добавлено: 05.07.2015
Другие материалы по этой песне:

Страница создана 22.03.2012
http://primanota.ru/dexter-gordon/cheese-cake-chords.htm
Привет, Гость.
Предлагаем пройти революционный курс по гитаре.
Подарок от PrimaNota.Ru, забирай!