PrimaNota.ru - самый крупный в мире бесплатный архив песенных текстов, аккордов, табулатур и нот


Dexter Gordon - Blow Mr Dexter - таба, видео

Регистрация Запомнить меня
Войти через:  Facebook Google Twitter Vk Yandex Mail.ru

Dexter Gordon - Blow Mr Dexter - таба, видео

Печатать
Просмотров: 113
-------------------------------------------------------------------------------
                         Blow Mr. Dexter - Dexter Gordon
-------------------------------------------------------------------------------
Tuning: Standard

  Bb                                                       Bb 7
e|------------------|------------------|------------------|------------------|
B|--------------7---|------------------|------------------|------------------|
G|------7-8-10----9-|-10---8-6-7---5---|------------------|------------------|
D|-8-10-------------|----------------6-|-8----------------|------------------|
A|------------------|------------------|---8----------9-7-|-8----------------|
E|------------------|------------------|------------------|---6--------------|


  Eb 7                                  Bb                          G7
e|------------------|------------------|------------------|------------------|
B|------------------|------------------|------------------|------------------|
G|--------8-10--11-9|-10--8------------|------------------|------------------|
D|-8-10-11----------|------10-11---10--|-8----------------|------------------|
A|------------------|----------------11|---8----------9-7-|-8----------------|
E|------------------|------------------|------------------|---6--------------|


  Cm 7                         F7       Bb
e|------------------|------------------|------------------|------------------|
B|----------8---9-7-|-8--------7-------|--------------7---|------------------|
G|---7-8-10---------|---8-7------------|-----7-8-10-----9-|-10-6-7-----------|
D|-10---------------|-------10---------|-8-10-------------|--------8---------|
A|------------------|------------------|------------------|------------------|
E|------------------|------------------|------------------|------------------|

Добавлено: 11.08.2015
Вам также может быть интересно:
Другие материалы по этой песне:
  • Аккорды и текст

Страница создана 11.08.2015
http://primanota.ru/dexter-gordon/blow-mr-dexter-chords.htm
Привет, Гость.
Предлагаем пройти революционный курс по гитаре.
Подарок от PrimaNota.Ru, забирай!