PrimaNota.ru - самый крупный в мире бесплатный архив песенных текстов, аккордов, табулатур и нот


Dew-scented - Rituals Of Time - бас-таба, видео

Регистрация Запомнить меня
Войти через:  Facebook Google Twitter Vk Yandex Mail.ru

Dew-scented - Rituals Of Time - бас-таба, видео

Печатать
Просмотров: 104
Song : Rituals of time

Band : Dew Scented

Album : Issue VI

Tabbed by Alan Deely  (merdetruc@hotmail.com)



Tune down one whole step : D  G  C  F


|-----------|
|-----------|
|-----------|
|--0--|--0--|




|-----------------------------------------------------------------------------------------------|
|-----------------------------------------------------------------------------------------------|
|-----------------------------------------------------------------------------------------------|
|-/12----0---0---0---0---0---0---0---0---0--0--0--0--0--0--0--0--0--0--0--0--0-0-0--0--0-0-0--0-|




|------------------------------------------|                    |------------------------|
|------------------------------------------|                    |------------------------|
|--7--------7--------7-----7-7-7-7-7-7-----|                    |------------------------|
|--0--0--0--0--0--0--0--0--0-0-0-0-0-0--0--|  Riff 1  X 8       |-------0--0--0-0-0--0---|





|--------------------------------------------------------------|
|--------------------------------------------------------------|
|-----7--------------7-7-7–7-----7-----------------------------|
|---0----0--1--0--5------------0---0--1--0--3---0--0--0-0-0--0-| X 2



|------------------------------------------------------------------------------|
|------------------------------------------------------------------------------|
|------------------------------------------------------------------------------|
|-0---0---0---0---0---0---0---0-----0---0---0---0--0--0--0--0-0-0--0--0-0-0-0--|



|--------------------------------------------------------------|
|--------------------------------------------------------------|
|-----7--------------7-7-7–7-----7-----------------------------|
|---0----0--1--0--5------------0---0--1--0--3---0--0--0-0-0--0-|


|--------------------------------------------------------------|
|--------------------------------------------------------------|
|-----7---------------------------------7----------------------|
|---0----0--1--0--5--0--0--0-0-0--0---0---0--1--0--3---7-7-7-7-| Riff 2 X 2


Riff 1  X 4


Then:

|-----------------------------------------------------------------------|
|-----------------------------------------------------------------------|
|-------8------7--8-7----12------11------8-7-8------8p7s6s7---8--7------|
|--0--0-------------------------------------------------------------7---|



|-----------------------------------------------------------------------------------------|
|-----------------------------------------------------------------------------------------|
|-----------8---------7-8-7--------12--------11---------8-7-8----------8p7s6s7---8--7-----|
|--0–0–0–0----0–0–0-0------0–0–0-0---0–0-0-0----0–0–0-0--------0–0–0-0-----------------7--|



|-----------------------------------------------------------------------------------------|
|-----------------------------------------------------------------------------------------|
|-----------8---------7-8-7--------12--------11---------8-7-8----------8p7s6s7---8--7--4--|
|--0–0–0–0----0–0–0-0------0–0–0-0---0–0-0-0----0–0–0-0--------0–0–0-0--------------------|


|-------------------------------------------------------------------------------------------|
|-------------------------------------------------------------------------------------------|
|-----------8---------7-8-7--------12--------11---------8-7-8----------8p7s6s7---5--4--5--2-|
|--0–0–0–0----0–0–0-0------0–0–0-0---0–0-0-0----0–0–0-0--------0–0–0-0----------------------|


|-----------------------------------------------------------------------------------------|
|-----------------------------------------------------------------------------------------|
|-----------8---------7-8-7--------12--------11---------8-7-8----------8p7s6s7---8--4-----|
|--0–0–0–0----0–0–0-0------0–0–0-0---0–0-0-0----0–0–0-0--------0–0–0-0--------------------|



|-------------------------------------------------------------------|
|-------------------------------------------------------------------|
|-------------------------------------------------------------------|
|--0---1---0---1---0---1---0---3---1---3---1---3---1---3---7---6----| Riff 3  X 4


Riff 2  X 2


|-----------------------------------------------------------------------------------------|
|-----------------------------------------------------------------------------------------|
|-----------8---------7-8-7--------12--------11---------8-7-8----------8p7s6s7---8--7-----|
|--0–0–0–0----0–0–0-0------0–0–0-0---0–0-0-0----0–0–0-0--------0–0–0-0-----------------7--|



|-----------------------------------------------------------------------------------------|
|-----------------------------------------------------------------------------------------|
|-----------8---------7-8-7--------12--------11---------8-7-8----------8p7s6s7---8--7--4--|
|--0–0–0–0----0–0–0-0------0–0–0-0---0–0-0-0----0–0–0-0--------0–0–0-0--------------------|


|-------------------------------------------------------------------------------------------|
|-------------------------------------------------------------------------------------------|
|-----------8---------7-8-7--------12--------11---------8-7-8----------8p7s6s7---5--4--5--2-|
|--0–0–0–0----0–0–0-0------0–0–0-0---0–0-0-0----0–0–0-0--------0–0–0-0----------------------|


|-----------------------------------------------------------------------------------------|
|-----------------------------------------------------------------------------------------|
|-----------8---------7-8-7--------12--------11---------8-7-8----------8p7s6s7---8--4-----|
|--0–0–0–0----0–0–0-0------0–0–0-0---0–0-0-0----0–0–0-0--------0–0–0-0--------------------|


Riff 3  X 8


|-------------------------------------|
|-------------------------------------|
|-------------------------------------|
|--0---0---0---0---0---0---0---0------|


Follow the beat of the bass drums for the rhythm of course


|---------------------------------------------------------------------------|
|---------------------------------------------------------------------------|
|---------------------------------------------------------------------------|
|--0-0-0-----0-0-0-----0-0-0-------0-0-----0-0-0----0-0-0--0-0-0--0---------|


 Riff 2 X 2


|-----------------------------------------------------------------------|
|-----------------------------------------------------------------------|
|-------8------7--8-7----12------11------8-7-8------8p7s6s7---8--7------|
|--0--0-------------------------------------------------------------7---|



|-----------------------------------------------------------------------------------------|
|-----------------------------------------------------------------------------------------|
|-----------8---------7-8-7--------12--------11---------8-7-8----------8p7s6s7---8--7-----|
|--0–0–0–0----0–0–0-0------0–0–0-0---0–0-0-0----0–0–0-0--------0–0–0-0-----------------7--|



|-----------------------------------------------------------------------------------------|
|-----------------------------------------------------------------------------------------|
|-----------8---------7-8-7--------12--------11---------8-7-8----------8p7s6s7---8--7--4--|
|--0–0–0–0----0–0–0-0------0–0–0-0---0–0-0-0----0–0–0-0--------0–0–0-0--------------------|


|-------------------------------------------------------------------------------------------|
|-------------------------------------------------------------------------------------------|
|-----------8---------7-8-7--------12--------11---------8-7-8----------8p7s6s7---5--4--5--2-|
|--0–0–0–0----0–0–0-0------0–0–0-0---0–0-0-0----0–0–0-0--------0–0–0-0----------------------|


|-----------------------------------------------------------------------------------------|
|-----------------------------------------------------------------------------------------|
|-----------8---------7-8-7--------12--------11---------8-7-8----------8p7s6s7---8--4-----|
|--0–0–0–0----0–0–0-0------0–0–0-0---0–0-0-0----0–0–0-0--------0–0–0-0--------------------|



Riff 3   X 4

Riff 2   X 2

Riff 1   X 4

P = pull off

S = slide

Yeah right!
Добавлено: 16.05.2012
Вам также может быть интересно:
Другие материалы по этой песне:
  • Аккорды и текст

Страница создана 16.05.2012
http://primanota.ru/dew-scented/rituals-of-time-chords.htm
Привет, Гость.
Предлагаем пройти революционный курс по гитаре.
Подарок от PrimaNota.Ru, забирай!