PrimaNota.ru - самый крупный в мире бесплатный архив песенных текстов, аккордов, табулатур и нот


Dew-scented - Bled Dry - бас-таба, видео

Регистрация Запомнить меня
Войти через:  Facebook Google Twitter Vk Yandex Mail.ru

Dew-scented - Bled Dry - бас-таба, видео

Печатать
Просмотров: 121
Song: Bled Dry

Band: Dew Scented

Album : Issue VI

Tabbed by Alan Deely  (merdetruc@hotmail.com)



Tune down one whole step : D  G  C  F

 |-------------------------------------------------------------------------------------|
 |-------------------------------------------------------------------------------------|
 |-------------8-7-8--5-------------8-7-8----------------8-7-8--5------------8-7-8--11-|
 |-0--0-0-0-0------------0--0-0-0-0--------5--0--0-0-0-0----------0--0-0-0-0-----------|  
Riff 1  X 4




 |------------------------------------------------------------|
 |------------------------------------------------------------|
 |-1-----------1--1--1h4--------------------------------------|
 |---0-0-0-0-0---0---------0-3-0-1-0-3-0-1-0-3-0-1-0-3-0------|  
Riff 2  X 6



 Riff 1  X 4



 |------------------------------------------------------------------------------|
 |------------------------------------------------------------------------------|
 |----------12--11--12--14-----------------------------12--11--12--14--7h8p7--5-|
 |-0-0-0--0---0---0---0-----0--0--0--0--0--0--0-0-0--0---0---0---0--------------|
Riff 3  X 4


  
 Riff 2  X 6


 Riff 1  X 4


 Riff 3  X 4



 |---------------------|
 |---------------------|
 |---------------------|
 |--0----1-1--3--1-----|   Riff 4 X 2




 |---------------------------------------------|
 |---------------------------------------------|
 |---------------------------------------------|
 |--0---0-1---1-1--3--1--0----5--1--1-1--3--1--|  Riff 5  X 2



 Riff 4  X 3



 |-------------------------------------------------------------------------------------|
 |-------------------------------------------------------------------------------------|
 |-------------------------------------------------------------------------------------|
 |--0--0--0--0---0-1--1--1--1--1-1--3--1--0--0--0--0--0--5--1--1--1--1--1--1-1--3--1---| 
Riff 6  X 2



 Riff 2  X 6

 
 Riff 1  X 4

 
 
 |--------------------------|
 |--------------------------|
 |----------12--11--12--14--|
 |-0-0-0--0---0---0---0-----|  X 1

 h = hammer on

 p = pull off

 

great song


http://www.dew-scented.de/
Добавлено: 29.03.2012
Другие материалы по этой песне:
  • Аккорды и текст

Страница создана 29.03.2012
http://primanota.ru/dew-scented/bled-dry-chords.htm
Привет, Гость.
Предлагаем пройти революционный курс по гитаре.
Подарок от PrimaNota.Ru, забирай!