PrimaNota.ru - самый крупный в мире бесплатный архив песенных текстов, аккордов, табулатур и нот


Devourment - Chocking On Bile - таба, видео

Регистрация Запомнить меня
Войти через:  Facebook Google Twitter Vk Yandex Mail.ru

Devourment - Chocking On Bile - таба, видео

Печатать
Просмотров: 193
Уроки эстрадного вокала в Санкт-Петербурге
Band:  Devourment
Album: Molesting The Decapitated
Song:  Chocking On Bile

Copyright (c)  United Guttural Records 1999


Tuning: B Standard
                         x2
|-------------------------|-----------------------------------------------------|
|.-----------------------.|.----------------------------------------------------|
|-------------------------|-----------------------------------------------------|
|-------------------------|-----------------------------------------------------|
|.2-2-2-2-2-2-2-2-2-2-2-2.|.--------<2>----------<2>----------<2>---------------|
|-0-0-0-0-0-0-0-0-0-0-0-0-|-00000000<2>0000000000<2>0000000000<2>00000000000000-|
  . . . . . . . . . . . .   ........   ..........   ..........   ............
                            x4
|----------------------------|---------------------|
|.--------------------------.|---------------------|
|----------------------------|-------------------.-|
|--1-----2-----1-----2-------|-1-----2-----1-----2-|
|.-1-1-2-2-3-2-1-1-2-2-3322-.|-1-1-2-2-3-2-1-1-2-2-|
|----1-2---3-2---1-2---3322--|---1-2---3-2---1-2---|
     . .   . .   . .   ....      . .   . .   . .
                                                      x2
--------------------------|----------------------------|---------------------|
--------------------------|.--------------------------.|---------------------|
--------------------------|----------------------------|-------------------.-|
-------4-----------4------|--3-----4-----3-----4-------|-3-----4-----3-----4-|
-2-4-5-2-5-4-2-4-5-2-5533-|.-1-4-5-2-5-4-1-4-5-2-5544-.|-1-4-5-2-5-4-1-4-5-2-|
-0-2-3---3-2-0-2-3---3322-|----2-3---3-2---2-3---3322--|---2-3---3-2---2-3---|
 . . . . . . . . . . ....    . . . . . . . . . . ....    . . . . . . . . . .
                               x8                                          x4
-----------|--------------------|-------------------------------------------|
-----------|.------------------.|.-----------------------------------------.|
-----------|--------------------|-------------------------------------------|
-----------|--------------------|-------------------------------------------|
---------2-|.-2322322243333222-.|.-3/4\3-2-2-2-2-2-2-2-3/4\3-2-5-4---4-3---.|
-/slide--0-|--0100100021111000--|--1/2\1-0-0-0-0-0-0-0-1/2\1-0-3-2-0-2-1-0--|
         .    ................             . . . . . .         . . . . . .
                           x2                   x2
|---------------------------|--------------------|--------------------------|
|.-------------------------.|.------------------.|.-------------------------|
|---------------------------|--------------------|--------------------------|
|---------------------------|--------------------|--------------------------|
|.-2-3-2-3-2-2-4-3-3-3-2-2-.|.-2322322243333222-.|.-2-3-4-2-4-3-2-3-4-2-4-3-|
|--0-1-0-1-0-0-2-1-1-1-0-0--|--0100100021111000--|--0-1-2-0-2-1-0-1-2-0-2-1-|
   . . . . . . . . . . . .     ................     . . . . . . . . . . . .
(the 2nd time you get slower)x2        x7
--------------------------|---------------|--------------------|
-------------------------.|.-------------.|--------------------|
--------------------------|---------------|--------------------|
--------------------------|---------------|--------------------|
-2-3-4-2-4-3-2-3-4-2-4-5-.|.-2-3-4-2-4-3-.|-2-3-4-2---------8--|
-0-1-2-0-2-1-0-1-2-0-2-3--|--0-1-2-0-2-1--|-0-1-2-0-/slide--6--|
 . . . . . . . . . . . .     . . . . . .    . . . .         .
                                                                  x2
|------------------------------------------------------------------|
|-----------------------------------------------------------------.|
|------------------------------------------------------------------|
|------------------------------------------------------------PH----|
|-2222112222221122222211222222-3-2222112222221122222211222222<1>~-.|
|-0000110000001100000011000000-1-0000110000001100000011000000------|
  ............................   ............................
                                                    x4
|----------------------------------------------------|
|.--------------------------------------------------.|
|----------------------------------------------------|
|--------3-3-3-------3------------3-3-3-------3------|
|.-2-3-2-1-1-1-2-3-2-1-2-3-2-33-2-1-1-1-2-3-2-1-2-3-.|
|--0-1-0-1-1-1-0-1-0-1-0-1-0-11-0-1-1-1-0-1-0-1-0-1--|
   . . .       . . .   . . . .. .       . . .   . .
                   x3                                  x11
|-------------------|----------------|-------------------|---------------|
|.-----------------.|----------------|.-----------------.|---------------|
|-------------------|----------------|-------------------|---------------|
|-------------------|-------------.--|-------------------|-------------.-|
|.-2-3-3-4-1-4-3-4-.|-2-3-3-4-1-4-3--|.-2-3-3-4-1-4-3-4-.|-2-3-3-4-1-4-3-|
|--0-1-1-2-1-2-1-2--|-0-1-1-2-1-2-1--|--0-1-1-2-1-2-1-2--|-0-1-1-2-1-2-1-|
   . . . . . . . .    . . . . . . .     . . . . . . . .    . . . . . . .
                    x7
|--------------------|----------------|------------------------------|
|.------------------.|----------------|.-----------------------------|
|--------------------|----------------|------------------------------|
|--------------------|----------------|------------------------------|
|.-2322322243333222-.|-23223222-5-4-3-|.-22-2-22-2--3--22-2-22-2--3--|
|--0100100021111000--|-01001000-3-2-1-|--00-0-00-0--1--00-0-00-0--1--|
   ................    ........ . . .    .. . .. .  .  .. . .. .  .
                              x4
-------------------------------|-------------------------------|
------------------------------.|.------------------------------|
-------------------------------|-------------------------------|
----------------------------2--|-------------------------------|
-22-2-22-2--3--5-6--5--3-5--2-.|.-22-2-22-2-3-2-22-2-22-2-3-2--|
-00-0-00-0--1--3-4--3--1-3-----|--00-0-00-0-1-0-00-0-00-0-1-0--|
 .. . .. .  .  . .  .  . .        .. . .. . . . .. . .. . . .
                               x4
--------------------------------|-----------------------------------------|
-------------------------------.|.----------------------------------------|
--------------------------------|-----------------------------------------|
-----------------------------2--|-----------------------------------------|
-22-2-22-2-3-2--5-6--5--3-5--2-.|.-2--5--4--4--2-2--6--5--3--222555444333-|
-00-0-00-0-1-0--3-4--3--1-3-----|--0--3--2--1--0-0--4--3--1--000333222111-|
 .. . .. . . .  . .  .  . .        .  .  .  .  . .  .  .  .  ............
              x7
---------------|-------------------------|
--------------.|-------------------------|
---------------|-------------------------|
------------2--|-------------------------|
-2-2--6--5--2-.|-22222222-3-22222222-2---|
-0-0--4--3-----|-00000000-1-00000000-0---|
 . .  .  .       ........ . ........ .

That's pretty much correct. It's almost shocking there are no other (accurate) 
tabs! SO... go grab your CD, throw that shit into your player and START fucking transcribing!
Добавлено: 14.06.2012
Вам также может быть интересно:
Другие материалы по этой песне:
  • Аккорды и текст

Страница создана 14.06.2012
http://primanota.ru/devourment/chocking-on-bile-chords.htm
Привет, Гость.
Предлагаем пройти революционный курс по гитаре.
Подарок от PrimaNota.Ru, забирай!