PrimaNota.ru - самый крупный в мире бесплатный архив песенных текстов, аккордов, табулатур и нот


Devourment - Baby Killer - текст песни, таба, видео

Регистрация Запомнить меня
Войти через:  Facebook Google Twitter Vk Yandex Mail.ru

Devourment - Baby Killer - текст песни, таба, видео

Печатать
Просмотров: 345
Artist- Devourment
Song- Baby Killer
written by- Satori Stahl
Email- sstahl_21@yahoo.com



riff 1 - 4x

B|-----------------------------------|-----------------------------------|
F#|----------------------------------|-----------------------------------|
D|-----------------------------------|-----------------------------------|
A|-7------------7--------------------|-7------------7--------------------|
E|-5--4--3---3--5--2-2-2--1-1-1--0-1-|-5--4--3---3--5--2-2-2--1-1-1--0-1-|
B|-5--2--1-0-1--5--2-2-2--1-1-1--0-1-|-5--2--1-0-1--5--2-2-2--1-1-1--0-1-|
pm . . . . . . . . . . . . . . . . . . . . . . . .

 Outro 1

B|-----------------------------|
F#|----------------------------|
D|-----------------------------|
A|-----------------------------|
E|-2---3-2-3---4-3-4--3--5-4-5-|
B|-0---1-0-1---2-1-2--1--3-2-3-|
pm . . . . . . . . . .


riff 2 - 4x

B|-----------------------------|-----------------------------|
F#|----------------------------|-----------------------------|
D|-----------------------------|-----------------------------|
A|-----------------------------|-----------------------------|
E|-2---3-2-3---4-3-4--3--5-4-5-|-2---3-2-3---4-3-4--3--5-4-3-|
B|-0---1-0-1---2-1-2--1--3-2-3-|-0---1-0-1---2-1-2--1--3-2-1-|
pm . . . . . . . . . . . . . . . . . . . . . .


riff 3 - 2x

B|-------------------------------------|-------------------------------------|
F#|------------------------------------|-------------------------------------|
D|-------------------------------------|-------------------------------------|
A|-----------------------------------5-|-----------------------------------3-|
E|-2---3--2--3---4--3--4---3---5--4--3-|-2---3--2--3---4--3--4---3---5--4--1-|
B|-0---1--0--1---2--1--2---1---3--2--3-|-0---1--0--1---2--1--2---1---3--2--1-|
pm . . . . . . . . . . . . . . . . . . . .


riff 4 - 2x

B|------------------------------------------------------------|
F#|-----------------------------------------------------------|
D|------------------------------------------------------------|
A|------------------------------------------------------------|
E|---------------------------------------------2--3-3-5-3-----|
B|-0-0-1-1-3-3-1-1-0-0-1-1-3-3-1-1-0-0-1-1-3-3-0--1-1-3-1-----|
pm . . . . . . . . . . . . . . . . . . . . . . . . . . .


riff 5 - 1x

B|----------------------------------------------------|
F#|---------------------------------------------------|
D|----------------------------------------------------|
A|----------------------------------------------------|
E|---3-5---3-5---3-5---3-5---3-5---3-5---3-5---(4ph~)-|
B|-0-1-3-0-1-3-0-1-3-0-1-3-0-1-3-0-1-3-0-1-3-0--------|
pm . . . . . . . . . . . . . . . . . . . . . .

B|-------------------------------------------------------|
F#|------------------------------------------------------|
D|-------------------------------------------------------|
A|-------------------------------------------------------|
E|---3-5---3-5---3-5---3-5---3-5---3-5---3-5---3-5-2-----|
B|-0-1-3-0-1-3-0-1-3-0-1-3-0-1-3-0-1-3-0-1-3-0-1-3-0-----|
pm . . . . . . . . . . . . . . . . . . . . . . . . .


riff 6 - 4x

B|---------------------------|----------------------------------------|
F#|--------------------------|----------------------------------------|
D|---------------------------|----------------------------------------|
A|----------7------------8---|----------7---------------------------8-|
E|-4--2--3--5----5-5-3-4-6---|-4--2--3--5----5-5-5--3-3-3--4-4-4--6-6-|
B|-2--0--1--5----3-3-1-2-6---|-2--0--1--5----3-3-3--1-1-1--2-2-2--6-6-|
pm . . . . . . . . . . . . . . . . . . . . .


Outro 2

B|--------------------------|-----------------------------------|
F#|-------------------------|-----------------------------------|
D|--------------------------|-----------------------------------|
A|--------------------------|-----------------------------------|
E|-5-5-4--2--4--5--4--3--6--|-5-5-4--2--4--5--4--5--------------|
B|-3-3-2--0--2--3--2--1--4--|-3-3-2--0--2--3--2--3---------12\0-|
pm . . . . . . . . . . . . . . . . .


riff 7 - 4x

B|--------------------------|---------------------------|
F#|-------------------------|---------------------------|
D|--------------------------|---------------------------|
A|--------------------------|-----------------------6---|
E|-5-5-4--2--4--5--4--3--6--|-5-5-4--2--4--5--4--5--4---|
B|-3-3-2--0--2--3--2--1--4--|-3-3-2--0--2--3--2--3--4---|
pm . . . . . . . . . . . . . . . . .


riff 8 - 4x

B|-------------------|-------------------|
F#|------------------|-------------------|
D|-------------------|-------------------|
A|-------------------|-------------------| " = Tremolo
E|-------------------|-------------------|
B|-0"-1"-3"-0"-1"-3"-|-0"-1"-3"-0"-1"-3"-|


riff 7 - 4x

B|--------------------------|---------------------------|
F#|-------------------------|---------------------------|
D|--------------------------|---------------------------|
A|--------------------------|-----------------------6---|
E|-5-5-4--2--4--5--4--3--6--|-5-5-4--2--4--5--4--5--4---|
B|-3-3-2--0--2--3--2--1--4--|-3-3-2--0--2--3--2--3--4---|
pm . . . . . . . . . . . . . . . . .


riff 8 - 4x

B|-------------------|-------------------|
F#|------------------|-------------------|
D|-------------------|-------------------|
A|-------------------|-------------------|
E|-------------------|-------------------|
B|-0"-1"-3"-0"-1"-3"-|-0"-1"-3"-0"-1"-3"-|


riff 9 - 4x

B|----------------------------------|----------------------------------|
F#|---------------------------------|----------------------------------|
D|----------------------------------|----------------------------------|
A|----------------------------------|----------------------------------|
E|---4---3-4-4-5-5----4---3-4-4-3-3-|---4---3-4-4-5-5----4---3-4-4-3-3-|
B|-0-2-0-1-2-2-3-3--0-2-0-1-2-2-1-1-|-0-2-0-1-2-2-3-3--0-2-0-1-2-2-1-1-|
pm . . . . . . . . . . . . . . . . . . . . . . . . . . . . . . . .


riff 10 - 2x

B|----------------------|-------------------------|
F#|---------------------|-------------------------|
D|----------------------|-------------------------|
A|-------------------4--|-------------------5--4--|
E|-3--2--4--3--2--3--2--|-3--2--4--3--2--3--3--2--|
B|-1--0--2--1--0--1--2--|-1--0--2--1--0--1--3--2--|
pm . . . . . . . . . . . .


riff 10b - 1x

B|----------------------|-------------------------|-------------------------|
F#|---------------------|-------------------------|-------------------------|
D|----------------------|-------------------------|-------------------------|
A|-------------------4--|-------------------5--4--|-------------------4-----|
E|-3--2--4--3--2--3--2--|-3--2--4--3--2--3--3--2--|-3--2--4--3--2--3--2-----|
B|-1--0--2--1--0--1--2--|-1--0--2--1--0--1--3--2--|-1--0--2--1--0--1--2-----|
pm . . . . . . . . . . . . . . . . . .


riff 11 - 4x

B|----------------|-----------------|
F#|---------------|-----------------|
D|----------------|-----------------|
A|-7--7-----------|-8--8------------|
E|-5--5----4--3-4-|-6--6----4-4-3-4-|
B|-5--5----2--1-2-|-6--6----2-2-1-2-|
pm . . . . . . .


riff 12 - 8x

B|--------------------------------|-----------------------------|
F#|-------------------------------|-----------------------------|
D|--------------------------------|-----------------------------|
A|--------------------------------|-------------------4-----8---|
E|-2--3--2---4-3---2--3--2---3-4--|-2--3--2---4-3---0-2---4-6---|
B|-0--1--0---2-1---0--1--0---1-2--|-0--1--0---2-1---0-2---4-6---|
pm . . . . . . . . . . . . . . . . .


And Then The Song Fades Out

http://www.myspace.com/devourment  
Добавлено: 01.03.2012
Вам также может быть интересно:
Другие материалы по этой песне:

Страница создана 01.03.2012
http://primanota.ru/devourment/baby-killer-chords.htm
Привет, Гость.
Предлагаем пройти революционный курс по гитаре.
Подарок от PrimaNota.Ru, забирай!