PrimaNota.ru - самый крупный в мире бесплатный архив песенных текстов, аккордов, табулатур и нот


Devo - Wiggly World - текст песни, таба, бас-таба, видео

Регистрация Запомнить меня
Войти через:  Facebook Google Twitter Vk Yandex Mail.ru

Devo - Wiggly World - текст песни, таба, бас-таба, видео

Печатать
Просмотров: 145
Авторы музыки: Gerald Casale, Mark Mothersbaugh

Song: Wiggly World
Band: DEVO
Album: Duty Now For The Future

This DEVO song has many guitar and synth parts.
Only about Three really stick out though. All are arranged for guitar (of 
course).

Intro: All Synths play something like this: 
|-------------------------------||
|-------------------------------||
|------------------------------o|| Play this 8 times
|--10--7--10--7-7--10--7--10---o||
|--10--7--10--7-7--10--7--10----||     
|--8---5--8---5-5--8---5--8-----||
  
Then a guitar plays this: distorted
|-----------------|
|---------10------|
|---------10------| Play this 8 times
|--3------10------|
|--3------8-------|
|--1--------------|

Then another guitar comes in: distorted
Fig. 1
|--------------------|
|--------------------|
|--3^(4)-------------| Play Once Now & more times during verses.
|--------5--0-2-3^---|       
|--------------------|
|--------------------|

Rhythm Guitar Verse Part:
|---------------------------------|
|---------------------------------|
|---------------------------------| 
|--5-5-5-5-5-5----3-3-3-3--3---3--|
|--5-5-5-5-5-5----3-3-3-3--3---3--|
|--3-3-3-3-3-3----1-1-1-1--1---1--| 

Lead Guitar Plays Fig. 1 in 2nd verse, this in 1st verse:
|--------------------------|
|--------------------------|
|--3^(4)-------------------| Play Thrice
|--------5--0--2-3^---2h0--|
|--------------------------|
|--------------------------|


Then This: (Also The OUTRO)
|----------------------------------|
|---------------10-10-10-10-10-10--|
|--12-----------10-10-10-10-10-10--| Play 4 times
|--12-----------10-10-10-10-10-10--|
|--10-----------8--8--8--8--8--8---|
|----------------------------------|  

BRIDGE PART: Bass Synth
|-------------------------------|-------------------------------| 
|-------------------------------|-------------------------------| 
|-------------------------------|-------------------------------|
|-------------------------------|-------------------------------| 
|-------------3-----------------|-------------------------------|
|--3--3-3-5-5------3-3-5-5-3-3--|--8-8-8-8-8-8-8-8--3-3-5-5-3-3-|  


|---------------------------------|---------------------------|  
|---------------------------------|---------------------------|  
|---------------------------------|---------------------------|  
|---------------------------------|---------------------------|  
|---------------------------------|---------------------------|  
|--8-8-8-8-8-8-8-8-8--3-3-5-5-3-3-|-8-8-8-8-8-8--3-3-5-5-3-3--|


Then Guitars Play The F Chords from the INTRO again.

For the rest of the song, mix it up.

End on:
|-----------------||
|-----------------||
|--12-------------||
|--12-------------||
|--10-------------||
|-----------------||
     
Добавлено: 07.06.2013
Другие материалы по этой песне:
  • Аккорды и текст

Страница создана 24.03.2012
http://primanota.ru/devo/wiggly-world-chords.htm
Привет, Гость.
Предлагаем пройти революционный курс по гитаре.
Подарок от PrimaNota.Ru, забирай!