PrimaNota.ru - самый крупный в мире бесплатный архив песенных текстов, аккордов, табулатур и нот


Devlins - Reckless - аккорды и текст, видео

Регистрация Запомнить меня
Войти через:  Facebook Google Twitter Vk Yandex Mail.ru

Devlins - Reckless - аккорды и текст, видео

Печатать
Просмотров: 30
Reckless
Devlins
G6: 320000 


intro: (Em - G6 - C - Am) x2 

Em G6 C Am 
I guess that you could say 

Em G6 C Am 
that things worked out okay, for now 

Em G6 C Am 
the promises you made 

Em G6 C Am 
could disappear without a trace 

Em G6 C Am (lick 01) 
cause i'm reckless 

Em G6 C Am (lick 01) 
cause i'm reckless now 

Em G6 C Am (lick 01) 
cause i'm reckless 

Em G6 C Am (lick 02) 
somewhere along the way 

Em G6 C Am 
you raised your hands up to my face .and said... 

Em G6 C Am 
you never should look back 

Em G6 C Am 
experience as taught us that 

Am Em 
I tried 

Am Em 
I tried ^^^^. and I... 

Am Em ... tried 

Am I still feel out of place and strange 

Em G6 C Am (lick 01) 
Cause I'm reckless 

Em G6 C Am (lick 01) 
Cause I'm reckless 

Em G6 C Am (solo 01) 
And somewhere out in space 

Em (lick 04) 
A satellite revolves untraced 

Em G6 C Am (lick 04) 
You offer up so much 

Em G6 C Am (lick 04) 
I'm sure there is a price to pay 

Em G6 C Am 
Cause I'm reckless 

Em G6 C Am 
Cause I'm reckless 

Em G6 C Am 
Cause I'm reckless Am(loud) 

Em G6 C Am 
I guess that you could say 

Em G6 C Am 
That things worked out okay 

Am Em for now 

(lick 01) 

(------7------7--7-------------------------------) 
(----------------------5------------5------------) 
(-----------------------------7------------------) 
(------------------------------------------------) 
(------------------------------------------------) 
(------------------------------------------------) 

(lick 02) 

(-----------------------------------0----------------------------------------) 
(------------------3--------------------------------3------------------2^^^^^) 
(----------------------------------------------------------------------------) 
(----------------------------------------------------------------------------) 
(----------------------------------------------------------------------------) 
(--------------------------------------------------------------------------- ) 

(solo 01) 
(---------4/5---------6/7^^^^^-----------------------10------3-----3-----5---) 
(----------------------------------------------------------------------------) 
(----------------------------------------------------------------------------) 
(----------------------------------------------------------------------------) 
(----------------------------------------------------------------------------) 
(--------------------------------------------------------------------------- ) 

(-----------12---12----12----3/2------------------3h5----3h5-----------------) 
(----------------------------------------------------------------------------) 
(----------------------------------------------------------------------------) 
(----------------------------------------------------------------------------) 
(----------------------------------------------------------------------------) 
(----------------------------------------------------------------------------) 

(------------------------0-------) 
(-------0-------2---0--------0---) 
(--------------------------------) 
(--------------------------------)
(--------------------------------) 
(--------------------------------) 

(lick 04) 

(---------------------------10-------------------------------------------10--) 
(--7----8----10----7----8------7----8----7----8----10----7----8-------7-----8)
(----------------------------------------------------------------------------)
(----------------------------------------------------------------------------) 
(----------------------------------------------------------------------------) 
(----------------------------------------------------------------------------) 
Добавлено: 07.06.2016
Другие материалы по этой песне:
  • Аккорды и текст

Страница создана 07.06.2016
http://primanota.ru/devlins/reckless-chords.htm
Привет, Гость.
Предлагаем пройти революционный курс по гитаре.
Подарок от PrimaNota.Ru, забирай!