PrimaNota.ru - самый крупный в мире бесплатный архив песенных текстов, аккордов, табулатур и нот


Devil Makes Three - Black Irish - таба, видео

Регистрация Запомнить меня
Войти через:  Facebook Google Twitter Vk Yandex Mail.ru

Devil Makes Three - Black Irish - таба, видео

Печатать
Просмотров: 189
----------------------------------------------------------------------------
                        Black Irish - The Devil Makes Three
----------------------------------------------------------------------------
Tabbed by: Hostile Apostle

This tab is definitely not 100% correct. Although it is close.
Please send suggestions and corrections to Mareed129@aol.com

Tuning: Standard


      Am   C    G    F    E
e|----5----8----3----1----0-------------------------|
B|----5----8----3----1----0-------------------------|
G|----5----9----4----2----1-------------------------|
D|----7----10---5----3----2-------------------------|
A|----7----10---5----3----2-------------------------|
E|----5----8----3----1----0-------------------------|


e|-------5-7-8-5-5-|-5-5-5h8-5-5-5---5-5-5h8-5-5-5--|
B|---8-8-----------|--------------------------------|
G|-----------------|--------------------------------|
D|-----------------|--------------------------------|
A|-----------------|--------------------------------|
E|-----------------|--------------------------------|


e|---5-5-5h8-5-5-5---7-8-8-8---5-5-5h8-5-5-5--------|
B|--------------------------------------------------|
G|--------------------------------------------------|
D|--------------------------------------------------|
A|--------------------------------------------------|
E|--------------------------------------------------|


e|---5-5-5h8-5-5-5---5-5-----5---8-5-5--------------|
B|-----------------------8-8---8--------------------|
G|--------------------------------------------------|
D|--------------------------------------------------| x2
A|--------------------------------------------------|
E|--------------------------------------------------|

Am
I'll be goin' out tonight
                    C
I don't care what I do
Am
I'll wake up in the mornin'
        G                Am  
And I'm beaten black and blue
Am                                          C
I'ma feel tomorrow like a worn down pair of shoes
Am                               G                Am 
The only point of this body here tonight is to be used


        F                 E                   Am    G    Am    G
Cuz oh, I wanna feel that blood rushin' in my veins
F                 E                       Am   G   Am   G
I don't want this night to ever turn into day
F                           E
If I could only do all them things I wanted to
           Am      G           Am    G 
While that spirits rushin' now in my veins
       F                        E 
Yes if I could only do all them things I wanted to


e|--3/5-5-5p3p0-----------3/5-5-5p3p0--5/7-7-7p5p0--|
B|---------------3-1-0------------------------------|
G|---------------------2----------------------------|
D|--------------------------------------------------|
A|--------------------------------------------------|
E|--------------------------------------------------|

e|--3/5-5-5p3p0-------------------------------------|
B|---------------3-1-0------------------------------|
G|---------------------2--2-4-5-4-2-2---------------|
D|--------------------------------------------------|
A|--------------------------------------------------|
E|--------------------------------------------------|

Am                                              C
Tonight I'm gonna go on down now to that rivers edge
Am                      G            Am
I'ma pull all them dead ideas out my head
Am                                           C
I'm gonna open up the gate, let the coliseum scream
Am                                  G                Am
Tonight the whole damn worlds gonna know just what I mean


        F                 E                   Am    G    Am    G
Cuz oh, I wanna feel that blood rushin' in my veins
F                 E                       Am   G   Am   G
I don't want this night to ever turn into day
F                           E
If I could only do all them things I wanted to
           Am      G           Am    G 
While that spirits rushin' now in my veins
       F                        E 
Yes if I could only do all them things I wanted to
           Am      G      F  E  Am 
While that spirits rushin in my veins


e|---5-5-5h8-5-5-5---5-5-5h8-5-5-5---5-5-5h8-5-5-5----|
B|----------------------------------------------------|
G|----------------------------------------------------|
D|----------------------------------------------------|
A|----------------------------------------------------|
E|----------------------------------------------------|

e|---7-8-8-8---5-5-5h8-5-5-5---5-5-5h8-5-5-5----------|
B|----------------------------------------------------|
G|----------------------------------------------------|
D|----------------------------------------------------|
A|----------------------------------------------------|
E|----------------------------------------------------|

e|---5-5-----5---8-5-5--------------------------------|
B|-------8-8---8--------------------------------------|
G|----------------------------------------------------|
D|----------------------------------------------------| x2
A|----------------------------------------------------|
E|----------------------------------------------------|

e|--x-x-12-x-x-10-x-x-8-5-5-5-x-x-12-x-x-10-x-x-15----|
B|----------------------------------------------------|
G|----------------------------------------------------|
D|----------------------------------------------------|
A|----------------------------------------------------|
E|----------------------------------------------------|


e|--15-15-15--x-x-12-x-x-10-x-x-8-5-5-5-----5---8-5-5-|
B|--------------------------------------8-8---8-------|
G|----------------------------------------------------|
D|----------------------------------------------------| x2
A|----------------------------------------------------|
E|----------------------------------------------------|


Am                                          C
Tonight I'll put that match down to that gasoline
Am                           G             Am
Spin that rusty wheel and be burned by the steam
Am                                                C
Tonight I'll take that main line direct in to the drain
Am                                  G         Am
If you don't see me tomorrow know I died as I pleased


        F                 E                   Am    G    Am    G
Cuz oh, I wanna feel that blood rushin' in my veins
F                 E                       Am   G   Am   G
I don't want this night to ever turn into day
F                           E
If I could only do all them things I wanted to
           Am      G           Am    G 
While that spirits rushin' now in my veins
       F                        E 
Yes if I could only do all them things I wanted to
           Am      G      F  E  Am 
While that spirits rushin in my veins


| /  slide up
| \  slide down
| h  hammer-on
| p  pull-off
| ~  vibrato
| +  harmonic
| x  Mute note
============================================================================
Добавлено: 11.06.2012
Другие материалы по этой песне:
  • Аккорды и текст

Страница создана 11.06.2012
http://primanota.ru/devil-makes-three/black-irish-chords.htm
Привет, Гость.
Предлагаем пройти революционный курс по гитаре.
Подарок от PrimaNota.Ru, забирай!