PrimaNota.ru - самый крупный в мире бесплатный архив песенных текстов, аккордов, табулатур и нот


Device - You Think You Know - таба, видео

Регистрация Запомнить меня
Войти через:  Facebook Google Twitter Vk Yandex Mail.ru

Device - You Think You Know - таба, видео

Печатать
Просмотров: 504
Device: You Think You Know

Transcribed by: mysticguitar77

YouTube Username: MysticGuitar77

Date last modified: March 28, 2013

Tuning: Drop A (A,E,A,D,F#,B)

Riff 1   "C'mon!"
 B|---------------------------------------------------|
F#|---------------------------------------------------|
 D|---------------------------------------------------|
 A|-3------------6-3-----0-5-5-3----------------------|
 E|-3-0-0--0-0-0-6-3-0-0-0-5-5-3-0-0--0-0-0-----------|
 A|-3-0-0--0-0-0-6-3-0-0-0-5-5-3-0-0--0-0-0-6-3-0--5b-|
      * *  * * *     * *         * *  * * *     *

 B|----------------------------------------------------------|
F#|----------------------------------------------------------|
 D|----------------------------------------------------------|
 A|-3------------6-3-----0-5-5-------------------------------|
 E|-3-0-0--0-0-0-6-3-0-0-0-5-5-------------------------------|
 A|-3-0-0--0-0-0-6-3-0-0-0-5-5-3-3-3-3-3*-x-3--1-1-1-1-x-x-1-|
      * *  * * *     * *               ^ very quick natural harmonic here
                                         that he only does in the intro. I
                                         play it in between frets 3 and 4.

Riff 2   "Don't hang me on another problem..."
 B|---------------------------------------------------|
F#|---------------------------------------------------|
 D|---------------------------------------------------|
 A|---------------------------------------------------|
 E|---------------------------------------------------|
 A|-3-0-0--0-0-0-6-3-0-0-0-5-5-3-0-0--0-0-0-6-3-0--5b-|
      * *  * * *     * *         * *  * * *     *

 B|------------------------------------------------------|
F#|------------------------------------------------------|
 D|------------------------------------------------------|
 A|------------------------------------------------------|
 E|------------------------------------------------------|
 A|-3-0-0--0-0-0-6-3-0-0-0-5-5-3-3-3-3--3--1-1-1-1-x-x-1-|
      * *  * * *     * *      

Play Riff 2 x2   "I really don't give a fuck if you believe me..."

Riff 3   "Now get your ass out the door..."
 B|--------------------------------------------------------|
F#|--------------------------------------------------------|
 D|--------------------------------------------------------|
 A|--------------------------------------------------------|
 E|--------------------------------------------------------|
 A|-5-5-5--5-5-5b6r5--5-5-5b6r5--5-5-5b6-6-6-6-6r5/3-3-3-3-|
           * *        * *        * *     ^ ^ ^ hold the bend during this part

Play Riff 3 x2   "Won't take shit anymore..."

Riff 4   "You think you know but you're horribly blind..."
 B|----------------------------------------------------------------|
F#|----------------------------------------------------------------|
 D|----------------14-15-14----------------12-12-12-12-12-12-12-12-|
 A|-0-0-0-0--0-0-0-x--x--x--8-8-8-8--8-8-8-x--x--x--x--x--x--x--x--| x3
 E|-0-0-0-0--0-0-0-12-13-12-8-8-8-8--8-8-8-10-10-10-10-10-10-10-10-|
 A|-0-0-0-0--0-0-0----------8-8-8-8--8-8-8-------------------------|

 B|----------------------------------------------------------------------|
F#|----------------------------------------------------------------------|
 D|-7-7-7-7--------14-14-14-15-14----------------12-12-12-12-12-12-12-12-|
 A|-x-x-x-x--0-0-0-x--x--x--x--x--8-8-8-8--8-8-8-x--x--x--x--x--x--x--x--|
 E|-5-5-5-5--0-0-0-12-12-12-13-12-8-8-8-8--8-8-8-10-10-10-10-10-10-10-10-|
 A|-0-0-0-0--0-0-0----------------8-8-8-8--8-8-8-------------------------|

Fill 1
 B|---------------------------------------------------|
F#|---------------------------------------------------|
 D|---------------------------------------------------|
 A|-3------------6-3-----0-5-5-3------------6-3-----3-|
 E|-3-0-0--0-0-0-6-3-0-0-0-5-5-3-0-0--0-0-0-6-3-0-0-3-|
 A|-3-0-0--0-0-0-6-3-0-0-0-5-5-3-0-0--0-0-0-6-3-0-0-3-|
      * *  * * *     * *         * *  * * *     * *

Play Riff 2 x2   "Get off me, you don't know where I've been..."
Play Riff 3 x1   "Won't take shit anymore..."
Play Riff 4 x2   "You think you know but you're horribly blind..."

Riff 4 ending this time:
 B|-----------------------------------------------------------------------|
F#|-----------------------------------------------------------------------|
 D|-7-7-7-7--------14-14-14-15-14-----------------------------------------|
 A|-x-x-x-x--0-0-0-x--x--x--x--x---8-8-8-8--8-8-8-10-10-10-10-10-10-10-10-|
 E|-5-5-5-5--0-0-0-12-12-12-13-12--8-8-8-8--8-8-8-10-10-10-10-10-10-10-10-|
 A|-0-0-0-0--0-0-0-----------------8-8-8-8--8-8-8-10-10-10-10-10-10-10-10-|

Fill 2
 B|-------------------------|
F#|-------------------------|
 D|-------------------------|
 A|-------------------------|
 E|-------------------------|
 A|-3-3-3-3-3-3-3-3-1-1-1-1-|

Riff 5   "Well you can blame yourself..."
 B|-------------------------------------|
F#|-------------------------------------|
 D|-15-15-15-15---15b-15-15-15-15---15b-|
 A|-x--x--x--x----x---x--x--x--x----x---|
 E|-13-13-13-13---13b-13-13-13-13---13b-|
 A|-------------x-----------------x-----|

 B|------------------------------------------------------|
F#|------------------------------------------------------|
 D|-7-7-7-7----7b-7-7-7-7---7b---------------------------|
 A|-x-x-x-x----x--x-x-x-x---x----------------------------|
 E|-5-5-5-5----5b-5-5-5-5---5b-5-5-5-5---5b-5-5-5-5---5b-|
 A|---------x-------------x----5-5-5-5-x-5b-5-5-5-5-x-5b-|

1st ending
 B|---------------------------|
F#|---------------------------|
 D|---------------------------|
 A|-3------------3------------|
 E|-3-0-0--0-0-0-3-0-0--0-0-0-|
 A|-3-0-0--0-0-0-3-0-0--0-0-0-|
      * *  * * *   * *  * * *

2nd ending
 B|------------------------|
F#|------------------------|
 D|------------------------|
 A|-3------------3-----3-5-|
 E|-3-0-0--0-0-0-3-0-0-3-5-|
 A|-3-0-0--0-0-0-3-0-0-3-5-|
      * *  * * *   * *

Play Riff 5 x2   "And you just might be right..."
Play Riff 4 x2   "You think you know but you're horribly blind..."

Ending   "Mine!!"
 B|---------------------------------|
F#|---------------------------------|
 D|---------------------------------|
 A|---------------------------------|
 E|---------------------------------|
 A|-3-3-3-3-3-3-3-3-1-1-1-1-1-1-1-1-|

Enjoy!!
Добавлено: 05.11.2013
Другие материалы по этой песне:

Страница создана 05.11.2013
http://primanota.ru/device/you-think-you-know-chords.htm
Привет, Гость.
Предлагаем пройти революционный курс по гитаре.
Подарок от PrimaNota.Ru, забирай!