PrimaNota.ru - самый крупный в мире бесплатный архив песенных текстов, аккордов, табулатур и нот


Device - War Of Lies - текст песни, таба, видео

Регистрация Запомнить меня
Войти через:  Facebook Google Twitter Vk Yandex Mail.ru

Device - War Of Lies - текст песни, таба, видео

Печатать
Просмотров: 146
Device: War Of Lies

Transcribed by: mysticguitar77

YouTube Username: MysticGuitar77

Date last modified: May 13, 2013

Tuning: Drop A (A,E,A,D,F#,B) or for a 7-string (A,E,A,D,G,B,E)

Riff 1
 B|--------------------------------------------------------|
F#|--------------------------------------------------------|
 D|--------------------------------------------------------|
 A|--------------------------------------------------------|
 E|-5--5--5--5------------------5--5--5--5-----------------|
 A|------------0-0-0-1-1-1--1-1------------0-1-3-0-3-6-5-3-|
               * * *

 B|--------------------------------------------------|
F#|--------------------------------------------------|
 D|--------------------------------------------------|
 A|--------------------------------------------------|
 E|-5--5--5--5~--------------5--5--5--5--------------|
 A|--------------0-0-0-1-3-1------------0-1-3-0-3-6~-|
                   * *

Riff 2   "Who was the one that stood beside you..."
 B|--------------------------------------------------------|
F#|--------------------------------------------------------|
 D|-7--7--7--7------------------7--7--7--7-----------------|
 A|-x--x--x--x------------------x--x--x--x-----------------|
 E|-5--5--5--5-000-00-00011-111-5--5--5--5-----------------|
 A|------------000-00-00011-111------------0-1-3-0-3-6-5-3-|
               *** ** ***** ***

 B|---------------------------------------------------|
F#|---------------------------------------------------|
 D|-7--7--7--7~---------------7--7--7--7--------------|
 A|-x--x--x--x----------------x--x--x--x--------------|
 E|-5--5--5--5~--000-00011131-5--5--5--5--------------|
 A|--------------000-00011131------------0-1-3-0-3-6~-|
                 *** ********

Play Riff 2 x1
Play Riff 1 x1

Riff 3   "You made it happen again..."
 B|-----------------------------------------------------------------|
F#|-----------------------------------------------------------------|
 D|-5-5-5-5-5-5-5-5-5-5-5-5-5-5-5-5-7-7-7-7-7-7-7-7-7-7-7-7-7-7-7-7-|
 A|-5-5-5-5-5-5-5-5-5-5-5-5-5-5-5-5-7-7-7-7-7-7-7-7-7-7-7-7-7-7-7-7-|
 E|-3-3-3-3-3-3-3-3-3-3-3-3-3-3-3-3-5-5-5-5-5-5-5-5-5-5-5-5-5-5-5-5-|
 A|-----------------------------------------------------------------|

Play Riff 3 x2   "Threw your cover away..."

Riff 4   "You've waged your war of lies..."
 B|-----------------------------------------------------------------|
F#|-----------------------------------------------------------------|
 D|-----------------------------------------------------------------|
 A|-0-0-0-0-3-3-3-3-7-7-7-7-8-8-8-8-5-5-5-5-5-5-5-5-3-3-3-3-7-5-3p0-|
 E|-0-0-0-0-3-3-3-3-7-7-7-7-8-8-8-8-5-5-5-5-5-5-5-5-3-3-3-3-7-5-3p0-|
 A|-0-0-0-0-3-3-3-3-7-7-7-7-8-8-8-8-5-5-5-5-5-5-5-5-3-3-3-3-7-5-3p0-|

 B|-----------------------------------------------------------------------|
F#|-----------------------------------------------------------------------|
 D|-----------------------------------------------------------------------|
 A|-0-0-0-0-3-3-3-3-7-7-7-7-8-8-8-8-10-10-10-10-10-10-10-10-12-10-8-7-8-7-|
 E|-0-0-0-0-3-3-3-3-7-7-7-7-8-8-8-8-10-10-10-10-10-10-10-10-12-10-8-7-8-7-|
 A|-0-0-0-0-3-3-3-3-7-7-7-7-8-8-8-8-10-10-10-10-10-10-10-10-12-10-8-7-8-7-|

Play Riff 1 x1
Play Riff 2 x1   "I was the one..."
Play Riff 1 x1
Play Riff 3 x2   "You made it happen again..."
Play Riff 4 x2   "You've waged your war of lies..."

Riff 5
 B|-------------------|
F#|-------------------|
 D|-------------------|
 A|-10-12-12-10-12\-7-|
 E|-10-12-12-10-12\-7-| repeats throughout the entire bridge
 A|-10-12-12-10-12\-7-|

Play Riff 4 x4   "You've waged your war of lies..."
Play Riff 5 x4   w/ killswitch (ends w/ a slide down from the 12-12-12 chord)

Enjoy!!
Добавлено: 22.08.2013
Вам также может быть интересно:
Другие материалы по этой песне:
  • Аккорды и текст

Страница создана 22.08.2013
http://primanota.ru/device/war-of-lies-chords.htm
Привет, Гость.
Предлагаем пройти революционный курс по гитаре.
Подарок от PrimaNota.Ru, забирай!