PrimaNota.ru - самый крупный в мире бесплатный архив песенных текстов, аккордов, табулатур и нот


Device - Vilify - текст песни, таба, видео

Регистрация Запомнить меня
Войти через:  Facebook Google Twitter Vk Yandex Mail.ru

Device - Vilify - текст песни, таба, видео

Печатать
Просмотров: 278
Device: Vilify

Transcribed by: mysticguitar77

YouTube Username: MysticGuitar77

Date last modified: February 17, 2013

Tuning: Drop A (A,E,A,D,F#,B)

Device's YouTube Channel: http://www.youtube.com/user/devicetheband

Device's Official Website: http://deviceband.com/splash

Notes: The brand new single from David Draiman of Disturbed's new 
band Device. Easy song after you get the tuning which is very low in Drop A,
that's 2.5 steps down from Drop D, so it's pretty far down there. I'll be
covering this song soon on my channel as well, so check it out!!

Opening (light distortion)
 B|---------------------------------------------------|
F#|---------------------------------------------------|
 D|---------------------------------------------------|
 A|---------------------------------------------------|
 E|---------------------5-3---------------------------|
 A|-0-0--0-3b--0--0-5-6-----6~-0-0--0-3b--0--0-5-6-5~-|

Riff 1 (full distortion)
 B|-----------------------------------------------------|
F#|-----------------------------------------------------|
 D|-----------------------------------------------------|
 A|------------------------------------------------6ph~-|
 E|---------------------5-3--------------------5-5------|
 A|-0-0--0-3b--0--0-5-6-----6~-0-0--0-3b--0--0----------|
     ^ (you can hit an extra open note here to make it a triplet,
        it's kind of hard to tell if he does it or not, it's very
        possible he does play it that way)

 B|---------------------------------------------------|
F#|---------------------------------------------------|
 D|---------------------------------------------------|
 A|---------------------------------------------------|
 E|---------------------5-3---------------------------|
 A|-0-0--0-3b--0--0-5-6-----6~-0-0--0-3b--0--0-5-6-5~-|

Play Riff 1 x3   "...every single move that I make..."

Riff 2   "I can't believe this is happening..."
 B|-------------------------------------------------------|
F#|-------------------------------------------------------|
 D|-------------------------------------------------------|
 A|-------------------------------------------------------|
 E|-----------8~-----------7~-----------5~-----------5h7~-|
 A|-0-0-0-0-0----0-0-0-0-0----0-0-0-0-0----0-0-0-0-0------|
        * * *        * * *        * * *        * * *

 B|----------------------------------------------------------------|
F#|----------------------------------------------------------------|
 D|----------------------------------------------------------------|
 A|----------------------------------------------------------------|
 E|-----------8~-----------10~-----------12~-----------10h12p10\8~-|
 A|-0-0-0-0-0----0-0-0-0-0-----0-0-0-0-0-----0-0-0-0-0-------------|
        * * *        * * *         * * *         * * *

Riff 3   "When you vilify you begin to nullify..."
 B|-----------------------------------------------------|
F#|-----------------------------------------------------|
 D|-----------------------------------------------------|
 A|-3-0-0-0-0-3-0-0-0-0-3--7--8-8-8-8-8-7-7-7-7-7-7b8r7-|
 E|-3-0-0-0-0-3-0-0-0-0-3--7--8-8-8-8-8-7-7-7-7-7-7b8r7-|
 A|-3-0-0-0-0-3-0-0-0-0-3--7--8-8-8-8-8-7-7-7-7-7-7b8r7-|
      * * * *   * * * *         * * * *   * * * *

 B|-----------------------------------------------------|
F#|-----------------------------------------------------|
 D|-----------------------------------------------------|
 A|-3-0-0-0-0-3-0-0-0-0-3--7--8-8-8-8-8-7-7-7-7-7-7-8-8-|
 E|-3-0-0-0-0-3-0-0-0-0-3--7--8-8-8-8-8-7-7-7-7-7-7-8-8-|
 A|-3-0-0-0-0-3-0-0-0-0-3--7--8-8-8-8-8-7-7-7-7-7-7-8-8-|
      * * * *   * * * *         * * * *   * * * *

Play Riff 3 x2   "I wanna end it right now!!"

Fill 1 (w/ modulation effect)
 B|----------------|
F#|----------------|
 D|-7~-(7)-(7)-(7)-|
 A|-x---x---x---x--| strum the chord once and let the modulation effect
 E|-5~-(5)-(5)-(5)-| create the echo of the chord
 A|----------------|

Play Riff 1 x3
Play Riff 2 x1   "I can't believe this is happening..."
Play Riff 3 x2   "When you vilify you begin to nullify..."

Riff 4
 B|-------------------------------------------------|
F#|-------------------------------------------------|
 D|-------------------------------------------------|
 A|-------------------------------------------------|
 E|-------------------------------------------------|
 A|-3-5-5-5-3-5-5-5-3-5-5--5-7-7-7-5-7-7-7--7p5-5p3-|
    * * * * * * * * * * *  * * * * * * * *  * * * *

 B|-----------------------------------------------|
F#|-----------------------------------------------|
 D|-----------------------------------------------|
 A|-----------------------------------------------|
 E|-----------------------------------------------|
 A|-3-5-5-5-3-5-5-5-3-5-5--5-7-7-7-5-7-7-7--7b-7b-|

 B|-------------------------------------------------|
F#|-------------------------------------------------|
 D|-------------------------------------------------|
 A|-3-5-5-5-3-5-5-5-3-5-5--5-7-7-7-5-7-7-7--7p5-5p3-|
 E|-3-5-5-5-3-5-5-5-3-5-5--5-7-7-7-5-7-7-7--7p5-5p3-|
 A|-3-5-5-5-3-5-5-5-3-5-5--5-7-7-7-5-7-7-7--7p5-5p3-|

 B|-------------------------------------|
F#|-------------------------------------|
 D|-------------------------------------|
 A|-3-5-5-5-3-5-5-5-3-5-5--5-7-7-7--7-7-|
 E|-3-5-5-5-3-5-5-5-3-5-5--5-7-7-7--7-7-|
 A|-3-5-5-5-3-5-5-5-3-5-5--5-7-7-7--7-7-|

Play Riff 3 x4   "When you vilify you begin to nullify..."

Enjoy!!
Добавлено: 15.06.2013
Другие материалы по этой песне:
  • Аккорды и текст

Страница создана 15.06.2013
http://primanota.ru/device/vilify-chords.htm
Привет, Гость.
Предлагаем пройти революционный курс по гитаре.
Подарок от PrimaNota.Ru, забирай!