PrimaNota.ru - самый крупный в мире бесплатный архив песенных текстов, аккордов, табулатур и нот


Device - Penance - таба, видео

Регистрация Запомнить меня
Войти через:  Facebook Google Twitter Vk Yandex Mail.ru

Device - Penance - таба, видео

Печатать
Просмотров: 275
Уроки эстрадного вокала в Санкт-Петербурге
Device: Penance

Transcribed by: mysticguitar77

YouTube Username: MysticGuitar77

Date last modified: April 3, 2013

Tuning: Drop A (A,E,A,D,F#,B)

Intro
 B|-------------------------------------------------|
F#|-------------------------------------------------|
 D|-------------------------------------------------|
 A|-------------------------------------------------|
 E|-------------------------------------------------|
 A|-0-0--0--0-0-0--0-3b-5b-0-0--0--0-0-0-0-0-0--3b5-|
    * *  *  * * *  *       * *  *  * * * * * *

 B|-------------------------------------------------------|
F#|-------------------------------------------------------|
 D|-------------------------------------------------------|
 A|-------------------------------------------------------|
 E|-------------------------------------------------------|
 A|-0-0--0--0-0-0-0-0-0-0-3b-5b-0-0--0--0-0-0-3h5-0-1-0-1-|
    * *  *  * * * * * * *       * *  *  * * *     *   *

Riff 1
 B|-------------------------------------------------|
F#|-------------------------------------------------|
 D|-------------------------------------------------|
 A|-------------------------------------------------|
 E|-------------------------------------------------|
 A|-0-0--0--0-0-0--0-3b-5b-0-0--0--0-0-0-0-0-0--3b5-|
    * *  *  * * *  *       * *  *  * * * * * *

 B|----------------------------------------------------|
F#|----------------------------------------------------|
 D|----------------------------------------------------|
 A|----------------------------------------------------|
 E|----------------------------------------------------|
 A|-0-0--0--0-0-0--0-3b-5b-0-0--0--0-0-0-1-1-1-1-x-x-1-|
    * *  *  * * *  *       * *  *  * * *

Riff 2   "In the perfect dark..."
 B|------------------------------------------|
F#|------------------------------------------|
 D|------------------------------------------|
 A|------------------------------------------|
 E|------------------------------------------|
 A|-0-0-0-0-0---3~-3-5-3~-0-0-0-0-0---1-0-1~-|
    * * * * *             * * * * *     *

1st ending:
 B|-------------------------------------------------|
F#|-------------------------------------------------|
 D|-------------------------------------------------|
 A|-------------------------------------------------|
 E|-------------------------------------------------|
 A|-0-0-0-0-0---3~-3-5-3~-0-0-0-0-0---12-0-13-0-10~-|
    * * * * *             * * * * *

Repeat top half of Riff 2 again, then:
 B|-----------------------------------------|
F#|-----------------------------------------|
 D|-----------------------------------7--7\-|
 A|-----------------------------------7--7\-|
 E|-----------------------------------5--5\-|
 A|-0-0-0-0-0---3~-3-5-3~-0-0-0-0-0---------|
    * * * * *             * * * * *

Riff 3   "Lost in her piercing eyes..."
 B|------------------------------------------------------------|
F#|------------------------------------------------------------|
 D|------------------------------------------------------------|
 A|------------------------------------------------------------|
 E|------------------------------------------------------------|
 A|-/7-7-7-7-7\-/7-7-7-7-7\-/8-10-/7-7-7-7-7\-/7-7-7-7-7\-/8-5-|

Play Riff 3 x2   "As everything around me, dies!!"

Riff 4   "Well, can you make the nightmares go away..."
 B|-----------------------------------------------------------------|
F#|-----------------------------------------------------------------|
 D|-7-7-7-7-7--7-7-7-7-7--7\------------10-10-10-10-10--10-10-10-10-|
 A|-7-7-7-7-7--7-7-7-7-7--7\-7-7-7-7-7--10-10-10-10-10--10-10-10-10-|
 E|-5-5-5-5-5--5-5-5-5-5--5\-7-7-7-7-7--8--8--8--8--8---8--8--8--8--|
 A|--------------------------7-7-7-7-7------------------------------|

1st ending
 B|------------------------------------|
F#|------------------------------------|
 D|--------------------------12---10\9-|
 A|-7-7-7-7-7--7-7-7-7-7--7\-12---10\9-|
 E|-7-7-7-7-7--7-7-7-7-7--7\-10---8\\7-|
 A|-7-7-7-7-7--7-7-7-7-7--7\-----------|

Repeat top half of Riff 4, then:
 B|------------------------------------|
F#|------------------------------------|
 D|--------------------------12--10--9-|
 A|-7-7-7-7-7--7-7-7-7-7--7\-12--10--9-|
 E|-7-7-7-7-7--7-7-7-7-7--7\-10--8---7-|
 A|-7-7-7-7-7--7-7-7-7-7--7\-----------|

Play Riff 1 x1
Play Riff 2 x1   "In the choking dark..."
Play Riff 3 x2   "The only way I'll be saved..."
Play Riff 4 x1   "Well, can you make the nightmares go away..."

Riff 5
 B|---------------------------------|
F#|---------------------------------|
 D|---------------------------------|
 A|---------------------------------|
 E|---------------------------------|
 A|-8-8-8-7-7-7-5-5-7-7-7-8-8-8-5-5-|
    * * * * * * * * * * * * * * * *

Play Riff 5 x4

Riff 6
 B|-------------------------------|
F#|-------------------------------|
 D|-------------------------------|
 A|-------------------------------|
 E|-------------------------------|
 A|-8-8-8-7-7-7-5b-7-7-7-8-8-8-5b-|

Play Riff 6 x8   "Don't need it, don't want it..."

Fill 1
 B|--------------|
F#|--------------|
 D|--------------|
 A|-7~----7--7-7-|
 E|-7~----7--7-7-|
 A|-7~----7--7-7-|

Play Riff 4 x2   "Well, can you make the nightmares go away..."

Ending:
 B|-----------|
F#|-----------|
 D|-7-7-7-7-7-|
 A|-7-7-7-7-7-|
 E|-5-5-5-5-5-|
 A|-----------|

Enjoy!!
Добавлено: 29.07.2013
Другие материалы по этой песне:
  • Аккорды и текст

Страница создана 29.07.2013
http://primanota.ru/device/penance-chords.htm
Привет, Гость.
Предлагаем пройти революционный курс по гитаре.
Подарок от PrimaNota.Ru, забирай!