PrimaNota.ru - самый крупный в мире бесплатный архив песенных текстов, аккордов, табулатур и нот


Device - Out Of Line - таба, видео

Регистрация Запомнить меня
Войти через:  Facebook Google Twitter Vk Yandex Mail.ru

Device - Out Of Line - таба, видео

Печатать
Просмотров: 135
-------------------------------------------------------------------------------
          OUT OF LINE Feat. Serj Tankaian and Geezer Butler - DEVICE
-------------------------------------------------------------------------------



Tabbed by: James Hewitt
E-mail: jameshewitt89@gmail.com




Tuning: Drop A (A, E, A, D, F#, B) or 7 str. (A, E, A, D, G, B, E)



e|---------------------------------------------------------------------------|
B|---------------------------------------------------------------------------|
G|-----------------------2 bars of synth/ drum intro-------------------------|
D|---------------------------------------------------------------------------|
A|---------------------------------------------------------------------------|
E|---------------------------------------------------------------------------|

Heavy Riff

0:05                        "HUAH!"                           "HEY!"

e|---------------------------------------------------------------------------|
B|---------------------------------------------------------------------------|
G|---------------------------------------------------------------------------|
D|--3\-1---/5~-----3--1--0-----------3\-1---/5~-----3--1--0------------------|
A|--3\-1---/5~-----3--1--0-----------3\-1---/5~-----3--1--0------------------|
E|--3\-1---/5~-----3--1--0-----------3\-1---/5~-----3--1--0------------------|

                           "HUAH!"   

e|---------------------------------------------------------------------------|
B|---------------------------------------------------------------------------|
G|---------------------------------------------------------------------------|
D|--3\-1---/5~-----3--1--0-----------3\-1---/5~-----3--1--0------------------|
A|--3\-1---/5~-----3--1--0-----------3\-1---/5~-----3--1--0------------------|
E|--3\-1---/5~-----3--1--0-----------3\-1---/5~-----3--1--0------------------|

Verse 1

0:19       The rhythm might be a little off here, but you get the idea

e|---------------------------------------------------------------------------|
B|----10--10--10--10--10--10--10--10/--11--11--11--11--11--11--11--11/-------|
G|---------------------------------------------------------------------------|
D|----7---7---7---7---7---7---7---7/---8---8---8---8---8---8---8---8/--------|
A|---------------------------------------------------------------------------|
E|---------------------------------------------------------------------------|

e|---------------------------------------------------------------------------|
B|---13--13--13--13--13--13--13--13\---11--11--11--11/--13--13--13--13-------|
G|---------------------------------------------------------------------------|
D|---10--10--10--10--10--10--10--10\---8---8---8---8/---10--10--10--10-------|
A|---------------------------------------------------------------------------|
E|---------------------------------------------------------------------------|

e|---------------------------------------------------------------------------|
B|----10--10--10--10--10--10--10--10/--11--11--11--11--11--11--11--11/-------|
G|---------------------------------------------------------------------------|
D|----7---7---7---7---7---7---7---7/---8---8---8---8---8---8---8---8/--------|
A|---------------------------------------------------------------------------|
E|---------------------------------------------------------------------------|

e|---------------------------------------------------------------------------|
B|---13--13--13--13--13--13--13--13/---15--15--15--15--15--15--15--15--------|
G|---------------------------------------------------------------------------|
D|---10--10--10--10--10--10--10--10/---12--12--12--12--12--12--12--12--------|
A|---------------------------------------------------------------------------|
E|---------------------------------------------------------------------------|

e|---------------------------------------------------------------------------|
B|----10--10--10--10--10--10--10--10/--11--11--11--11--11--11--11--11/-------|
G|---------------------------------------------------------------------------|
D|----7---7---7---7---7---7---7---7/---8---8---8---8---8---8---8---8/--------|
A|---------------------------------------------------------------------------|
E|---------------------------------------------------------------------------|

e|---------------------------------------------------------------------------|
B|---13--13--13--13--13--13--13--13\---11--11--11--11/--13--13--13--13-------|
G|---------------------------------------------------------------------------|
D|---10--10--10--10--10--10--10--10\---8---8---8---8/---10--10--10--10-------|
A|---------------------------------------------------------------------------|
E|---------------------------------------------------------------------------|

e|---------------------------------------------------------------------------|
B|----10--10--10--10--10--10--10--10/--11--11--11--11--11--11--11--11/-------|
G|---------------------------------------------------------------------------|
D|----7---7---7---7---7---7---7---7/---8---8---8---8---8---8---8---8/--------|
A|---------------------------------------------------------------------------|
E|---------------------------------------------------------------------------|

e|---------------------------------------------------------------------------|
B|---13--13--13--13--13--13--13--13/---15--15--15--15--15--15--15--15--------|
G|---------------------------------------------------------------------------|
D|---10--10--10--10--10--10--10--10/---12--12--12--12--12--12--12--12--------|
A|---------------------------------------------------------------------------|
E|---------------------------------------------------------------------------|

Heavy Riff (Half)

0:44                        "HUAH!"                           "HEY!"

e|---------------------------------------------------------------------------|
B|---------------------------------------------------------------------------|
G|---------------------------------------------------------------------------|
D|--3\-1---/5~-----3--1--0-----------3\-1---/5~-----3--1--0------------------|
A|--3\-1---/5~-----3--1--0-----------3\-1---/5~-----3--1--0------------------|
E|--3\-1---/5~-----3--1--0-----------3\-1---/5~-----3--1--0------------------|

Verse 2

0:51

e|---------------------------------------------------------------------------|
B|----10--10--10--10--10--10--10--10/--11--11--11--11--11--11--11--11/-------|
G|---------------------------------------------------------------------------|
D|----7---7---7---7---7---7---7---7/---8---8---8---8---8---8---8---8/--------|
A|---------------------------------------------------------------------------|
E|---------------------------------------------------------------------------|

e|---------------------------------------------------------------------------|
B|---13--13--13--13--13--13--13--13\---11--11--11--11/--13--13--13--13-------|
G|---------------------------------------------------------------------------|
D|---10--10--10--10--10--10--10--10\---8---8---8---8/---10--10--10--10-------|
A|---------------------------------------------------------------------------|
E|---------------------------------------------------------------------------|

e|---------------------------------------------------------------------------|
B|----10--10--10--10--10--10--10--10/--11--11--11--11--11--11--11--11/-------|
G|---------------------------------------------------------------------------|
D|----7---7---7---7---7---7---7---7/---8---8---8---8---8---8---8---8/--------|
A|---------------------------------------------------------------------------|
E|---------------------------------------------------------------------------|

e|---------------------------------------------------------------------------|
B|---13--13--13--13--13--13--13--13/---15--15--15--15--15--15--15--15--------|
G|---------------------------------------------------------------------------|
D|---10--10--10--10--10--10--10--10/---12--12--12--12--12--12--12--12--------|
A|---------------------------------------------------------------------------|
E|---------------------------------------------------------------------------|

e|---------------------------------------------------------------------------|
B|----10--10--10--10--10--10--10--10/--11--11--11--11--11--11--11--11/-------|
G|---------------------------------------------------------------------------|
D|----7---7---7---7---7---7---7---7/---8---8---8---8---8---8---8---8/--------|
A|---------------------------------------------------------------------------|
E|---------------------------------------------------------------------------|

e|---------------------------------------------------------------------------|
B|---13--13--13--13--13--13--13--13\---11--11--11--11/--13--13--13--13-------|
G|---------------------------------------------------------------------------|
D|---10--10--10--10--10--10--10--10\---8---8---8---8/---10--10--10--10-------|
A|---------------------------------------------------------------------------|
E|---------------------------------------------------------------------------|

e|---------------------------------------------------------------------------|
B|----10--10--10--10--10--10--10--10/--11--11--11--11--11--11--11--11/-------|
G|---------------------------------------------------------------------------|
D|----7---7---7---7---7---7---7---7/---8---8---8---8---8---8---8---8/--------|
A|---------------------------------------------------------------------------|
E|---------------------------------------------------------------------------|

e|---------------------------------------------------------------------------|
B|---13--13--13--13--13--13--13--13/---15--15--15--15--15--15--15--15--------|
G|---------------------------------------------------------------------------|
D|---10--10--10--10--10--10--10--10/---12--12--12--12--12--12--12--12--------|
A|---------------------------------------------------------------------------|
E|---------------------------------------------------------------------------|

Chorus 1

1:17

e|---------------------------------------------------------------------------|
B|---------------------------------------------------------------------------|
G|--7-7-7-7-7-7-7-7-7---5-5-5-5-5-5-5-5-5---3-3-3-3-2-2-2-2------------------|
D|--7-7-7-7-7-7-7-7-7---5-5-5-5-5-5-5-5-5---3-3-3-3-2-2-2-2------------------|
A|--5-5-5-5-5-5-5-5-5---3-3-3-3-3-3-3-3-3---1-1-1-1-0-0-0-0------------------|
E|---------------------------------------------------------------------------|

This line (second part of the chorus) isn't quite correct, but my string keeps 
falling out and I can't be bothered trying to work out what it is, but just
play this anyways, if you're loud enough, no one will notice, ;)

Email me if you find a better way to play it, or use most of my tab and re-
do it yourself, (:

e|---------------------------------------------------------------------------|
B|---------------------------------------------------------------------------|
G|--7-7-7-7-7-7-7-7-7---5-5-5-5-5-5-5-5-5---3-3-3-3-2-2-2-2------------------|
D|--7-7-7-7-7-7-7-7-7---5-5-5-5-5-5-5-5-5---3-3-3-3-2-2-2-2------------------|
A|--5-5-5-5-5-5-5-5-5---3-3-3-3-3-3-3-3-3---1-1-1-1-0-0-0-0------------------|
E|---------------------------------------------------------------------------|

e|---------------------------------------------------------------------------|
B|---------------------------------------------------------------------------|
G|--7-7-7-7-7-7-7-7-7---5-5-5-5-5-5-5-5-5---3-3-3-3-2-2-2-2------------------|
D|--7-7-7-7-7-7-7-7-7---5-5-5-5-5-5-5-5-5---3-3-3-3-2-2-2-2------------------|
A|--5-5-5-5-5-5-5-5-5---3-3-3-3-3-3-3-3-3---1-1-1-1-0-0-0-0------------------|
E|---------------------------------------------------------------------------|

e|---------------------------------------------------------------------------|
B|---------------------------------------------------------------------------|
G|--9-7-7-7-7-7-7-7-----9-7-7-7-7-7-7-7--------------------------------------|
D|--9-7-7-7-7-7-7-7-----9-7-7-7-7-7-7-7--------------------------------------|
A|--7-5-5-5-5-5-5-5-----7-5-5-5-5-5-5-5--------------------------------------|
E|---------------------------------------------------------------------------|

Heavy Riff

1:30                        "HUAH!"                           "HEY!"

e|---------------------------------------------------------------------------|
B|---------------------------------------------------------------------------|
G|---------------------------------------------------------------------------|
D|--3\-1---/5~-----3--1--0-----------3\-1---/5~-----3--1--0------------------|
A|--3\-1---/5~-----3--1--0-----------3\-1---/5~-----3--1--0------------------|
E|--3\-1---/5~-----3--1--0-----------3\-1---/5~-----3--1--0------------------|

                           "HUAH!"   

e|---------------------------------------------------------------------------|
B|---------------------------------------------------------------------------|
G|---------------------------------------------------------------------------|
D|--3\-1---/5~-----3--1--0-----------3\-1---/5~-----3--1--0------------------|
A|--3\-1---/5~-----3--1--0-----------3\-1---/5~-----3--1--0------------------|
E|--3\-1---/5~-----3--1--0-----------3\-1---/5~-----3--1--0------------------|

Verse 3

1:43

e|---------------------------------------------------------------------------|
B|----10--10--10--10--10--10--10--10/--11--11--11--11--11--11--11--11/-------|
G|---------------------------------------------------------------------------|
D|----7---7---7---7---7---7---7---7/---8---8---8---8---8---8---8---8/--------|
A|---------------------------------------------------------------------------|
E|---------------------------------------------------------------------------|

e|---------------------------------------------------------------------------|
B|---13--13--13--13--13--13--13--13\---11--11--11--11/--13--13--13--13-------|
G|---------------------------------------------------------------------------|
D|---10--10--10--10--10--10--10--10\---8---8---8---8/---10--10--10--10-------|
A|---------------------------------------------------------------------------|
E|---------------------------------------------------------------------------|

e|---------------------------------------------------------------------------|
B|----10--10--10--10--10--10--10--10/--11--11--11--11--11--11--11--11/-------|
G|---------------------------------------------------------------------------|
D|----7---7---7---7---7---7---7---7/---8---8---8---8---8---8---8---8/--------|
A|---------------------------------------------------------------------------|
E|---------------------------------------------------------------------------|

e|---------------------------------------------------------------------------|
B|---13--13--13--13--13--13--13--13/---15--15--15--15--15--15--15--15--------|
G|---------------------------------------------------------------------------|
D|---10--10--10--10--10--10--10--10/---12--12--12--12--12--12--12--12--------|
A|---------------------------------------------------------------------------|
E|---------------------------------------------------------------------------|

e|---------------------------------------------------------------------------|
B|----10--10--10--10--10--10--10--10/--11--11--11--11--11--11--11--11/-------|
G|---------------------------------------------------------------------------|
D|----7---7---7---7---7---7---7---7/---8---8---8---8---8---8---8---8/--------|
A|---------------------------------------------------------------------------|
E|---------------------------------------------------------------------------|

e|---------------------------------------------------------------------------|
B|---13--13--13--13--13--13--13--13\---11--11--11--11/--13--13--13--13-------|
G|---------------------------------------------------------------------------|
D|---10--10--10--10--10--10--10--10\---8---8---8---8/---10--10--10--10-------|
A|---------------------------------------------------------------------------|
E|---------------------------------------------------------------------------|

e|---------------------------------------------------------------------------|
B|----10--10--10--10--10--10--10--10/--11--11--11--11--11--11--11--11/-------|
G|---------------------------------------------------------------------------|
D|----7---7---7---7---7---7---7---7/---8---8---8---8---8---8---8---8/--------|
A|---------------------------------------------------------------------------|
E|---------------------------------------------------------------------------|

e|---------------------------------------------------------------------------|
B|---13--13--13--13--13--13--13--13/---15--15--15--15--15--15--15--15--------|
G|---------------------------------------------------------------------------|
D|---10--10--10--10--10--10--10--10/---12--12--12--12--12--12--12--12--------|
A|---------------------------------------------------------------------------|
E|---------------------------------------------------------------------------|

Chorus 2 (extended)

2:09

e|---------------------------------------------------------------------------|
B|---------------------------------------------------------------------------|
G|--7-7-7-7-7-7-7-7-7---5-5-5-5-5-5-5-5-5---3-3-3-3-2-2-2-2------------------|
D|--7-7-7-7-7-7-7-7-7---5-5-5-5-5-5-5-5-5---3-3-3-3-2-2-2-2------------------|
A|--5-5-5-5-5-5-5-5-5---3-3-3-3-3-3-3-3-3---1-1-1-1-0-0-0-0------------------|
E|---------------------------------------------------------------------------|

e|---------------------------------------------------------------------------|
B|---------------------------------------------------------------------------|
G|--7-7-7-7-7-7-7-7-7---5-5-5-5-5-5-5-5-5---3-3-3-3-2-2-2-2------------------|
D|--7-7-7-7-7-7-7-7-7---5-5-5-5-5-5-5-5-5---3-3-3-3-2-2-2-2------------------|
A|--5-5-5-5-5-5-5-5-5---3-3-3-3-3-3-3-3-3---1-1-1-1-0-0-0-0------------------|
E|---------------------------------------------------------------------------|

e|---------------------------------------------------------------------------|
B|---------------------------------------------------------------------------|
G|--7-7-7-7-7-7-7-7-7---5-5-5-5-5-5-5-5-5---3-3-3-3-2-2-2-2------------------|
D|--7-7-7-7-7-7-7-7-7---5-5-5-5-5-5-5-5-5---3-3-3-3-2-2-2-2------------------|
A|--5-5-5-5-5-5-5-5-5---3-3-3-3-3-3-3-3-3---1-1-1-1-0-0-0-0------------------|
E|---------------------------------------------------------------------------|

e|---------------------------------------------------------------------------|
B|---------------------------------------------------------------------------|
G|--9-7-7-7-7-7-7-7-----9-7-7-7-7-7-7-7--------------------------------------|
D|--9-7-7-7-7-7-7-7-----9-7-7-7-7-7-7-7--------------------------------------|
A|--7-5-5-5-5-5-5-5-----7-5-5-5-5-5-5-5--------------------------------------|
E|---------------------------------------------------------------------------|


e|---------------------------------------------------------------------------|
B|---------------------------------------------------------------------------|
G|--7-7-7-7-7-7-7-7-7---5-5-5-5-5-5-5-5-5---3-3-3-3-2-2-2-2------------------|
D|--7-7-7-7-7-7-7-7-7---5-5-5-5-5-5-5-5-5---3-3-3-3-2-2-2-2------------------|
A|--5-5-5-5-5-5-5-5-5---3-3-3-3-3-3-3-3-3---1-1-1-1-0-0-0-0------------------|
E|---------------------------------------------------------------------------|

e|---------------------------------------------------------------------------|
B|---------------------------------------------------------------------------|
G|--7-7-7-7-7-7-7-7-7---5-5-5-5-5-5-5-5-5---3-3-3-3-2-2-2-2------------------|
D|--7-7-7-7-7-7-7-7-7---5-5-5-5-5-5-5-5-5---3-3-3-3-2-2-2-2------------------|
A|--5-5-5-5-5-5-5-5-5---3-3-3-3-3-3-3-3-3---1-1-1-1-0-0-0-0------------------|
E|---------------------------------------------------------------------------|

e|---------------------------------------------------------------------------|
B|---------------------------------------------------------------------------|
G|--7-7-7-7-7-7-7-7-7---5-5-5-5-5-5-5-5-5---3-3-3-3-2-2-2-2------------------|
D|--7-7-7-7-7-7-7-7-7---5-5-5-5-5-5-5-5-5---3-3-3-3-2-2-2-2------------------|
A|--5-5-5-5-5-5-5-5-5---3-3-3-3-3-3-3-3-3---1-1-1-1-0-0-0-0------------------|
E|---------------------------------------------------------------------------|

e|---------------------------------------------------------------------------|
B|---------------------------------------------------------------------------|
G|--9-7-7-7-7-7-7-7-----9-7-7-7-7-7-7-7--------------------------------------|
D|--9-7-7-7-7-7-7-7-----9-7-7-7-7-7-7-7--------------------------------------|
A|--7-5-5-5-5-5-5-5-----7-5-5-5-5-5-5-5--------------------------------------|
E|---------------------------------------------------------------------------|

Breakdown (Kinda)

2:34

e|---------------------------------------------------------------------------|
B|---------------------------------------------------------------------------|
G|---------------------------------------------------------------------------|
D|---------------------------------------------------------------------------|
A|---------------------------------------------------------------------------|
E|-------3-3-3-3b-------3-3-3-3b-------3-3-3-3b-------3-3-3-3b---------------|

e|---------------------------------------------------------------------------|
B|---------------------------------------------------------------------------|
G|---------------------------------------------------------------------------|
D|---------------------------------------------------------------------------|
A|---------------------------------------------------------------------------|
E|-------3-3-3-3b-------3-3-3-3b-------3-3-3-3b-------3-3-3-3b---------------|

Final Chorus

3:00

e|---------------------------------------------------------------------------|
B|---------------------------------------------------------------------------|
G|--7-7-7-7-7-7-7-7-7---5-5-5-5-5-5-5-5-5---3-3-3-3-2-2-2-2------------------|
D|--7-7-7-7-7-7-7-7-7---5-5-5-5-5-5-5-5-5---3-3-3-3-2-2-2-2------------------|
A|--5-5-5-5-5-5-5-5-5---3-3-3-3-3-3-3-3-3---1-1-1-1-0-0-0-0------------------|
E|---------------------------------------------------------------------------|

e|---------------------------------------------------------------------------|
B|---------------------------------------------------------------------------|
G|--7-7-7-7-7-7-7-7-7---5-5-5-5-5-5-5-5-5---3-3-3-3-2-2-2-2------------------|
D|--7-7-7-7-7-7-7-7-7---5-5-5-5-5-5-5-5-5---3-3-3-3-2-2-2-2------------------|
A|--5-5-5-5-5-5-5-5-5---3-3-3-3-3-3-3-3-3---1-1-1-1-0-0-0-0------------------|
E|---------------------------------------------------------------------------|

e|---------------------------------------------------------------------------|
B|---------------------------------------------------------------------------|
G|--7-7-7-7-7-7-7-7-7---5-5-5-5-5-5-5-5-5---3-3-3-3-2-2-2-2------------------|
D|--7-7-7-7-7-7-7-7-7---5-5-5-5-5-5-5-5-5---3-3-3-3-2-2-2-2------------------|
A|--5-5-5-5-5-5-5-5-5---3-3-3-3-3-3-3-3-3---1-1-1-1-0-0-0-0------------------|
E|---------------------------------------------------------------------------|

e|---------------------------------------------------------------------------|
B|---------------------------------------------------------------------------|
G|--9-7-7-7-7-7-7-7-----9-7-7-7-7-7-7-7--------------------------------------|
D|--9-7-7-7-7-7-7-7-----9-7-7-7-7-7-7-7--------------------------------------|
A|--7-5-5-5-5-5-5-5-----7-5-5-5-5-5-5-5--------------------------------------|
E|---------------------------------------------------------------------------|


e|---------------------------------------------------------------------------|
B|---------------------------------------------------------------------------|
G|--7-7-7-7-7-7-7-7-7---5-5-5-5-5-5-5-5-5---3-3-3-3-2-2-2-2------------------|
D|--7-7-7-7-7-7-7-7-7---5-5-5-5-5-5-5-5-5---3-3-3-3-2-2-2-2------------------|
A|--5-5-5-5-5-5-5-5-5---3-3-3-3-3-3-3-3-3---1-1-1-1-0-0-0-0------------------|
E|---------------------------------------------------------------------------|

e|---------------------------------------------------------------------------|
B|---------------------------------------------------------------------------|
G|--7-7-7-7-7-7-7-7-7---5-5-5-5-5-5-5-5-5---3-3-3-3-2-2-2-2------------------|
D|--7-7-7-7-7-7-7-7-7---5-5-5-5-5-5-5-5-5---3-3-3-3-2-2-2-2------------------|
A|--5-5-5-5-5-5-5-5-5---3-3-3-3-3-3-3-3-3---1-1-1-1-0-0-0-0------------------|
E|---------------------------------------------------------------------------|

e|---------------------------------------------------------------------------|
B|---------------------------------------------------------------------------|
G|--7-7-7-7-7-7-7-7-7---5-5-5-5-5-5-5-5-5---3-3-3-3-2-2-2-2------------------|
D|--7-7-7-7-7-7-7-7-7---5-5-5-5-5-5-5-5-5---3-3-3-3-2-2-2-2------------------|
A|--5-5-5-5-5-5-5-5-5---3-3-3-3-3-3-3-3-3---1-1-1-1-0-0-0-0------------------|
E|---------------------------------------------------------------------------|

e|---------------------------------------------------------------------------|
B|---------------------------------------------------------------------------|
G|--9-7-7-7-7-7-7-7-----9-7-7-7-7-7-7-7--------------------------------------|
D|--9-7-7-7-7-7-7-7-----9-7-7-7-7-7-7-7--------------------------------------|
A|--7-5-5-5-5-5-5-5-----7-5-5-5-5-5-5-5--------------------------------------|
E|---------------------------------------------------------------------------|

Heavy Riff (Outro)

3:26                        "HUAH!"                           "HEY!"

e|---------------------------------------------------------------------------|
B|---------------------------------------------------------------------------|
G|---------------------------------------------------------------------------|
D|--3\-1---/5~-----3--1--0-----------3\-1---/5~-----3--1--0------------------|
A|--3\-1---/5~-----3--1--0-----------3\-1---/5~-----3--1--0------------------|
E|--3\-1---/5~-----3--1--0-----------3\-1---/5~-----3--1--0------------------|

                           "HUAH!"   

e|---------------------------------------------------------------------------|
B|---------------------------------------------------------------------------|
G|---------------------------------------------------------------------------|
D|--3\-1---/5~-----3--1--0-----------3\-1---/5~-----3--1--0------------------|
A|--3\-1---/5~-----3--1--0-----------3\-1---/5~-----3--1--0------------------|
E|--3\-1---/5~-----3--1--0-----------3\-1---/5~-----3--1--0------------------|

************************************

| /   slide up
| \   slide down
| h   hammer-on
| p   pull-off
| ~   vibrato
| +   harmonic
| x   Mute note
| b   Bend
| pb  Pre-bend
| br  Bend release
| pbr Pre-bend release
| brb Bend release bend

************************************
Добавлено: 11.09.2013
Другие материалы по этой песне:
  • Аккорды и текст

Страница создана 11.09.2013
http://primanota.ru/device/out-of-line-chords.htm
Привет, Гость.
Предлагаем пройти революционный курс по гитаре.
Подарок от PrimaNota.Ru, забирай!