PrimaNota.ru - самый крупный в мире бесплатный архив песенных текстов, аккордов, табулатур и нот


Device - Haze - таба, видео

Регистрация Запомнить меня
Войти через:  Facebook Google Twitter Vk Yandex Mail.ru

Device - Haze - таба, видео

Печатать
Просмотров: 242
Device: Haze

Transcribed by: mysticguitar77

YouTube Username: MysticGuitar77

Date last modified: May 13, 2013

Tuning: Drop A (A,E,A,D,F#,B) or for a 7-string (A,E,A,D,G,B,E)

Riff 1   "I stagger onward..."
 B|-----------------------------------------------------------|
F#|-----------------------------------------------------------|
 D|-----------------------------------------------------------|
 A|-----------------------------------------------------------|
 E|-----------------------------------------------------------|
 A|-3--3-3-3--3-3-3-3-3-3--3-1b-3--3-3-3--3-3-3-3-3-3--3-6b-3-|
    *  * * *  * * * * * *  *       * * *  * * * * * *  *

 B|------------------------------------------------------|
F#|------------------------------------------------------|
 D|------------------------------------------------------|
 A|------------------------------------------------------|
 E|------------------------------------------------------|
 A|-3-3-3--3-3-3-3-3-3--3-1b-3--3-3-3--3-3-6-3-5-8-10\-1-|
    * * *  * * * * * *  *       * * *  * *

 B|-------------------------------------------------------------------|
F#|-------------------------------------------------------------------|
 D|-------------------------------------------------------------------|
 A|-------------------------------------------------------------------|
 E|----------------------------------------------------------------6\-|
 A|-1-1-1--1-1-1-1-1-1--1-1/10-10--10-10-10--10-10-10-10-10-10--10----|
    * * *  * * * * * *  *          *  *  *   *  *  *  *  *  *   *

 B|-----------------------------------------------------|
F#|-----------------------------------------------------|
 D|-----------------------------------------------------|
 A|-----------------------------------------------------|
 E|-----------------------------------------------------|
 A|-3--3-3-3--3-3-3-3-3-3--3-1b-3--3-3-3--3-3-3-5--8-10-|
       * * *  * * * * * *  *       * * *  * *

Riff 2
 B|------------------------------------------------------|
F#|------------------------------------------------------|
 D|------------------------------------------------------|
 A|------------------------------------------------------|
 E|-6-8-8-8-8-8-8-8-8-8-6--------------------------------|
 A|-----------------------8-6--5-6-6-6-6-6-6-6-6-6-8-6-3-|

 B|-------------------------------------------------------|
F#|-------------------------------------------------------|
 D|-------------------------------------------------------|
 A|----------------------------------------6--6--6--6/8-8-|
 E|-6-8-8-8-8-8-8-8-8-8-6------------------6--6--6--6/8-8-|
 A|-----------------------8-6--5-6-6-6-6-6-6--6--6--6/8-8-|

Riff 3   "The euphoric feeling is so right..."
 B|---------------------------------------------------|
F#|---------------------------------------------------|
 D|------------------------8--8-8-8--8-8--------------|
 A|-3--3-3-3--3-3-8-6--6-6-8--8-8-8--8-8-8-8-8-8------|
 E|-3--3-3-3--3-3-8-6--6-6-6--6-6-6--6-6-8-8-8-8------|
 A|-3--3-3-3--3-3-8-6--6-6---------------8-8-8-8-6-8\-|
                                         * * * *

 B|---------------------------------------------------|
F#|---------------------------------------------------|
 D|------------------------8--8-8-8--8-8--------------|
 A|-3--3-3-3--3-3-8-6--6-6-8--8-8-8--8-8-8-8-8-8-6-8\-|
 E|-3--3-3-3--3-3-8-6--6-6-6--6-6-6--6-6--------------|
 A|-3--3-3-3--3-3-8-6--6-6-6--6-6-6--6-6--------------|

Play Riff 3 x2   "And I know that reality really won't mind..."

Fill 1
 B|---------------|
F#|---------------|
 D|---------------|
 A|-3~------------|
 E|-3~------------|
 A|-3~------------|

Play Riff 1 x1   "Yeah, the night's beginning..."
Play Riff 2 x1
Play Riff 3 x2   "The euphoric feeling is so right..."

Fill 2
 B|---------------|
F#|---------------|
 D|-5~------------|
 A|-5~------------|
 E|-3~------------|
 A|---------------|

Riff 4   "You're in denial if you said you never wanted a taste..."
 B|--------------------------|
F#|--------------------------|
 D|-5----8--10--5----8--6--3-|
 A|-x----x--x---x----x--x--x-| let all these chords ring out
 E|-3----6--8---3----6--4--1-|
 A|--------------------------|

Play Riff 3 x4   "The euphoric feeling is so right..."
Play Fill 1 x1

Enjoy!!

Добавлено: 07.07.2013
Другие материалы по этой песне:
  • Аккорды и текст

Страница создана 07.07.2013
http://primanota.ru/device/haze-chords.htm
Привет, Гость.
Предлагаем пройти революционный курс по гитаре.
Подарок от PrimaNota.Ru, забирай!