PrimaNota.ru - самый крупный в мире бесплатный архив песенных текстов, аккордов, табулатур и нот


Deviates - My Life - текст песни, таба, видео

Регистрация Запомнить меня
Войти через:  Facebook Google Twitter Vk Yandex Mail.ru

Deviates - My Life - текст песни, таба, видео

Печатать
Просмотров: 129
Author/Artist: Deviates
Title: My life
Album: My life
Transcribed by: Salvatore Span?
Email: salspan17@virgilio.it

------------------------------------------------------------------------------|
------------------------------------------------------------------------------|
-------7-7--5-5-7-77----------------------------------------------------------|
-5-55--7-7--5-5-7-77----------------------------------------------------------|
-5-55--5-5--3-3-5-55----------------------------------------------------------|
-3-33-------------------------------------------------------------------------|
 verse

------------------------------------------------------------------------------|
------------------------------------------------------------------------------|
------7777-5555-7777---------------------77777--5--7--------------------------|
-5555-7777-5555-7777--x4--5------3--5----77777--5--7--------------------------|
-5555-5555-3333-5555------5--3-5------5--55555--3--5--------------------------|
-3333---------------------3---------------------------------------------------|
 repeat then play chorus:

------------------------------------------------------------------------------|
------------------------------------------------------------------------------|
-----------7-3-2--------------------------------------------------------------|
-55555555--7-3-2--33333333333333333-------------------------------------------|
-55555555--5-1-0--33333333333333333-------------------------------------------|
-33333333---------11111111111111111-------------------------------------------|
 bridge:

------------------------------------------------------------------------------|
------------------------------------------------------------------------------|
---------7-99--3-------------5--7---------------------------------------------|
-555555--7-99--3---33333333--5------------------------------------------------|
-555555--5-77--1---33333333--3--5---------------------------------------------|
-333333------------11111111---------------------------------------------------|
 repeat verse & chorus then over bass

------------------------------------------------------------------------------|
------------------------------------------------------------------------------|
---------------------------7---------------------------5---7----7-------------|
-555555555------------3-5--7---------5--55555555---------------------5--------|
-555555555--x2--3--5-------5---5--7-----55555555--x2---3---5----5-------------|
-333333333------------------------------33333333---------------------3--------|


------------------------------------------------------------------------------|
------------------------------------------------------------------------------|
------------7777--5555-----------------77777----------------------------------|
--55555555--7777--5555--x2--555555555--77777--7777-333333---------------------|
--55555555--5555--3333------555555555--55555--7777-333333---------------------|
--33333333------------------333333333---------5555-111111---------------------|
  repeat chorus and then stop the song
Добавлено: 10.07.2012
Другие материалы по этой песне:
  • Аккорды и текст

Страница создана 22.04.2012
http://primanota.ru/deviates/my-life-chords.htm
Привет, Гость.
Предлагаем пройти революционный курс по гитаре.
Подарок от PrimaNota.Ru, забирай!